» » »

Taproot, Art Tabs (ver.1)

Artists:  A B C D E F G H I J K L M N O P Q R S T U V W X Y Z # 

Art Tabs (ver.1)

Taproot Tabs
 Rating:
4/5 (5 votes)
Art lessons Tabs too difficult? Try these video lessons and learn fast
                Band- Taproot
Song- Art

Mike Gtr.1 (A D G C E A)
Stephen Gtr.2 (A D A D F# A)

I'm still working on it but here is what i have so far
:-)

Intro 

 Gtr.1
|------------------------------------------------|
|------------------------------------------------|
|------12---------------------13-----------------|
|----9-----9---9------------9----9----9----------|
|-10--------10--10-10/12-11--------11---11-11/12-|
|------------------------------------------------|
|Gtr.2                                           |
|------------------------------------------------|
|-------6----------------------7-----------------|
|------------------------------------------------|
|----7-----7---7------------7----7-----7---------|
|-7----------7----7--7/9--7---------7----7---7/9-|
|------------------------------------------------|

Verse

|-------0-----------0----------0----------0~-|
|-----7---7-------7---7------7---7-----------|
|--------------------------------------------|
|---0----------0-----------0----------0------|
|-5----------7-----------9----------3--------|
|--------------------------------------------|
|Gtr.2
|-
|-
|-
|-
|-
|-

Chorus

 Gtr.1
|-----------------------------------------|
|-----------------------------------------|
|-----------------------------------------|
|-----------------------------------------|
|-5--5-5---5--5-5-----2--2-2---2--2-2-----|
|-3--3-3---3--3-3-/5~-0--0-0---0--0-0-0h2-|
|Gtr.2                                    |
|-----------------------------------------|
|-----------------------------------------|
|-----------------------------------------|
|-----------------------------------------|
|-5--5-5---5--5-5-----2--2-2---2--2-2-----|
|-3--3-3---3--3-3-/5~-0--0-0---0--0-0-0h2-|


 Gtr.1
|--------------------------------------------|
|--------------------------------------------|
|--------------------------------------------|
|--------------------------------------------|
|-5--5-5---5--5-5-----2~----11-11-11/12/14---|
|-3--3-3---3--3-3-/5~-0~---------------------|
|Gtr.2                                       |
|--------------------------------------------|
|--------------------------------------------|
|--------------------------------------------|
|--------------------------------------------|
|-5--5-5---5--5-5----------------------------|
|-3--3-3---3--3-3-/5~-0~-----------------0h2-|


|--------------------------------------------|
|--------------------------------------------|
|--------------------------------------------|
|--------------------------------------------|
|-5--5-5---5--5-5-----2~----11-11-11/12/14---|
|-3--3-3---3--3-3-/5~-0~---------------------|
|Gtr.2                                       |
|--------------------------------------------|
|--------------------------------------------|
|--------------------------------------------|
|--------------------------------------------|
|-5--5-5---5--5-5----------------------------|
|-3--3-3---3--3-3-/5~-0~-----------------0h2-|


 Gtr.1
|--------------------------------------|
|--------------------------------------|
|--------------------------------------|
|--------------------------------------|
|-5--5-5---5--5-5-----2--2-2---2--2-2--|
|-3--3-3---3--3-3-/5~-0--0-0---0--0-0--|
|Gtr.2                                 |
|--------------------------------------|
|--------------------------------------|
|--------------------------------------|
|--------------------------------------|
|-5--5-5---5--5-5-----2--2-2---2--2-2--|
|-3--3-3---3--3-3-/5~-0--0-0---0--0-0--|
            
Submit corrections

comments powered by Disqus
↑ Back to top | Taproot Tabs for Art. Lyrics for acoustic guitar and electric guitar. Tablatures and chords are parodies/interpretations of the original songs. You may use it for private study, scholarship, research or language learning purposes only