» » »

Taproot, 1 Nite Stand Tabs (ver.2)

Artists:  A B C D E F G H I J K L M N O P Q R S T U V W X Y Z # 

1 Nite Stand Tabs (ver.2)

Taproot Tabs
 Rating:
4/5 (4 votes)
1 Nite Stand lessons Tabs too difficult? Try these video lessons and learn fast
1
                
Tuning: (A,E,A,D,G,B)

^(n) - bend 1/2 step and release
^ - bend 1/2 step

VERSE:
|---------------------------------------|
|---------------------------------------|
|-----------7^(7)-7--------------7^---5-|
|-----------X--------------------X--5-X-|
|-5-5--5--5-5^(5)-5--5-5-5--5--5-5^-3-3-|
|-0-0--0--0-0-----0--0-0-0--0--0-0----0-|

CHORUS:
|------------------------------------------------|
|------------------------------------------------|
|-------------33-3-333-3--------------33-3-333-3-|
|-00-0-022222211-1-111-1--00-0-022222211-1-111-1-|
|-00-0-022222211-1-111-1--00-0-022222211-1-111-1-|
|-00-0-022222211-1-111-1--00-0-022222211-1-111-1-|

|----------------------------------------------|
|----------------2-----------------------------|
|----------------2------------------33-3-333-3-|
|-00-0-03-3-3-22---22---00-0-022222211-1-111-1-|
|-00-0-03-3-3-22---22---00-0-022222211-1-111-1-|
|-00-0-03-3-3-22---22---00-0-022222211-1-111-1-|

VERSE FILL:
|--------------------------|
|--------------------------|
|-666666666666-------------|
|-444444444444666666666666-|
|-------------444444444444-|
|--------------------------|

FILL:
|--------|
|--------|
|-66-6---|
|-44-4-6-|
|------4-|
|--------|

INTERLUDE:
|----------------------------|
|----------------------------|
|-------7^(7)----66-6--6-6-6-|
|-------X--------44-4--6-6-6-|
|-55-5-55^(5)-55-44-4--4-4-4-|
|-00-0-00-----00-44-4--------|

INTERLUDE FILL:
|---|
|---|
|---|
|---|
|-5-|
|-0-|
            
Submit corrections

comments powered by Disqus
↑ Back to top | Taproot Tabs for 1 Nite Stand. Lyrics for acoustic guitar and electric guitar. 1 Tablatures and chords are parodies/interpretations of the original songs. You may use it for private study, scholarship, research or language learning purposes only