» » »

Taproot, 1 Night Stand Bass tabs (ver.1)

Artists:  A B C D E F G H I J K L M N O P Q R S T U V W X Y Z # 

1 Night Stand Bass tabs (ver.1)

Taproot Tabs
 Rating:
4/5 (4 votes)
1 Night Stand lessons Tabs too difficult? Try these video lessons and learn fast
1
                -Guitar intro
“..realized just how much happiness means me…”
G:				 ]
D:				 ]
A:				 ]	X2
E:  5-5-5-5h7-7-7-6-6-6-6-6-6         ]
B:				 ]

G:				]
D:				]
A:				]	X1
E: 5-5-5h8-8-8-7-7-7-7-7-7-          ]
B:				]

G:				 ]
D:				 ]
A:				 ]	X1
E:  5-5-5-5h7-7-7-6-6-6-6-6-6        ]
B:				 ]

G:			]
D:			]
A: -4---4------5------]		X4
E: 5—5—5--5--3---      ]
B:----3------------------]

“I can..”
G:			]
D:			]
A:-4*--------------------]		X1
E:-----------4*----------]
B:------------------------]

“see my destiny…”
G:			]
D:			]
A: -4---4------5------]		X1
E: 5—5—5--5--3---      ]
B:----3------------------]

“me”
G:			]
D:			]
A:-4*--------------------]		X1
E:-----------4*----------]
B:------------------------]





G:			]
D:			]
A: -4---4------5------]		X1
E: 5—5—5--5--3---      ]
B:----3------------------]

G:				 ]
D:				 ]
A:				 ]	X2
E:  5-5-5-5h7-7-7-6-6-6-6-6-6]
B:				 ]

G:				]
D:				]
A:				]	X1
E: 5-5-5h8-8-8-7-7-7-7-7-7-   ]
B:				]

G:				 ]
D:				 ]
A:				 ]	X1
E:  5-5-5-5h7-7-7-6-6-6-6-6-6]
B:				 ]

G:			]
D:			]
A: -4---4------5------]		X4
E: 5—5—5--5--3---      ]
B:----3------------------]


”I can..”
G:			]
D:			]
A:-4*--------------------]		X1
E:-----------4*----------]
B:------------------------]




G:			]
D:			]
A: -4---4------5------]		X1
E: 5—5—5--5--3---      ]
B:----3------------------]

“…me…”
G:			]
D:			]
A:-4*--------------------]		X1
E:-----------4*----------]
B:------------------------]

G:			]
D:			]
A: -4---4------5------]		X1
E: 5—5—5--5--3---      ]
B:----3------------------]

G:				 ]
D:				 ]
A:				 ]	X2
E:  5-5-5-5h7-7-7-6-6-6-6-6-6]
B:				 ]

G:				]
D:				]
A:				]	X1
E: 5-5-5h8-8-8-7-7-7-7-7-7-   ]
B:				]

G:				 ]
D:				 ]
A:				 ]	X1
E:  5-5-5-5h7-7-7-6-6-6-6-6-6]
B:				 ]

G:				 ]
D:				 ]
A:				 ]	X2
E:  5-5-5-5h7-7-7-6-6-6-6-6-6]
B:				 ]




G:				]
D:				]
A:				]	X1
E: 5-5-5h8-8-8-7-7-7-7-7-7-   ]
B:				]



G:				 ]
D:				 ]
A:				 ]	X1
E:  5-5-5-5h7-7-7-6-6-6-6-6-6]
B:				 ]

“once again I have proven my strength to myself on my own…”

G:			      ]
D:			      ]
A:--------------4-4-4--------]		X3
E:5-5-5-5-5-5-------4-4-4-]
B:			      ]

G:			]
D:			]
A: -4---4------5------]		X2
E: 5—5—5--5--3---      ]
B:----3------------------]

3:00 into song
G:				]
D:				]
A:				]	X4
E:------9---------9------10-]
B:  1010-10\3/1010—10-8----]


G:				 ]
D:				 ]
A:				 ]	X2
E:  5-5-5-5h7-7-7-6-6-6-6-6-6]
B:				 ]

G:				]
D:				]
A:				]	X1
E: 5-5-5h8-8-8-7-7-7-7-7-7-   ]
B:				]

G:				 ]
D:				 ]
A:				 ]	X1
E:  5-5-5-5h7-7-7-6-6-6-6-6-6]
B:				 ]

G:				 ]
D:				 ]
A:				 ]	X2
E:  5-5-5-5h7-7-7-6-6-6-6-6-6]
B:				 ]

G:				]
D:				]
A:				]	X1
E: 5-5-5h8-8-8-7-7-7-7-7-7-   ]
B:				]


G:				 ]
D:				 ]
A:				 ]	X1
E:  5-5-5-5h7-7-7-6-6-6-6-6-6]
B:				 ]


when i did this in word it was straight but now its f**ked up sorry
            
Submit corrections

comments powered by Disqus
↑ Back to top | Taproot Bass for 1 Night Stand. Lyrics for acoustic guitar and electric guitar. 1 Tablatures and chords are parodies/interpretations of the original songs. You may use it for private study, scholarship, research or language learning purposes only