» » »

Tapioca Fugitive- Jeffrey Bass tabs (ver.1)

Artists:  A B C D E F G H I J K L M N O P Q R S T U V W X Y Z # 

Tapioca Fugitive- Jeffrey Bass tabs (ver.1)

Tapioca Fugitive
Rating:
0/5 (0 votes)

Hard to play? Try these video lessons and learn fast.
                Intro
G---------------------------------------------------------------------
D-----------9------9---6---7------7---4---6------7---4---2---2-----2-2
A-------7-------------------------------------------------------------
E---7-----------------------------------------------------------------

Verse
G---------------------------------------------------------------------
D---------------------------------------------------------------------
A---5-5-5-5-5-5-5-5-7-7-7-7-7-7-7-7-----------------------------------
E-----------------------------------7--7--7--7--7--7—7-3-3-3-3-3-3-3-3

Chorus
G---------------------------------------------------------------------
D---------------------------------------------------------------------
A---5-5-5-5-5-5-5-5-7-7-7-7-7-7-7-7-9-9-9-9-9-9-9-9-5-5-5-5-5-5-5-5---
E---------------------------------------------------------------------
            
Hard to play? Try these video lessons and learn fast. | Correct




comments powered by Disqus
↑ Back to top | Tablatures and chords are parodies/interpretations of the original songs. You may use it for private study, scholarship, research or language learning purposes only