» » »

Time Of Songs Bass tabs (ver.1)

Artists:  A B C D E F G H I J K L M N O P Q R S T U V W X Y Z # 

Time Of Songs Bass tabs (ver.1)

Tapes N Tapes
Rating:
0/5 (0 votes)

Hard to play? Try these video lessons and learn fast.
                Tapes n' Tapes
Bass Tab
Time of Songs

Not 100% but pretty close.
The only part is the desending part on the A string isnt right at the end but sounds 
this way.
Please give credit where it is due if you copy paste this.
Thanks enjoy! Its a great and fun part

G |-----------------------------------------------------------------|
D |---------11--14---18--19----------------------11--14---18--19----|
A |--12------------------------------12--12--12---------------------| X 5
E |-----------------------------------------------------------------|

G|-------(thats 10 of them)-----------------------------------------------------|
D|12-12-12-12-12-12-12-12-12-12--9-11-----12-12-12-12-12-12-12-12-12-12---------|
A|-----------------------------------------------------------------------9-11---|X1
E|------------------------------------------------------------------------------|

G |---------------------------------------------------------------------|
D |---------11--14---18--19----------------------11--14---18--19--------|
A |--12------------------------------12--12--12-------------------------| X 1
E |---------------------------------------------------------------------|

G|-------(thats 10 of them)-----------------------------------------------------|
D|12-12-12-12-12-12-12-12-12-12--9-11-----12-12-12-12-12-12-12-12-12-12---------|
A|-----------------------------------------------------------------------9-11---|X1
E|------------------------------------------------------------------------------|

G |------------------------------|
D |---------11--14---18--19------|
A |--12--------------------------|  X 3
E |------------------------------|

G |---------------------------------------------|
D |---------------------11--14-----18-19--------|
A |--12--12--12---------------------------------|    X 1
E |---------------------------------------------|

G |----------------------------|
D |---------11--14-----18--19--|
A |--12------------------------|  X 2
E |----------------------------|

G|-------(thats 10 of them)-----------------------------------------------------|
D|12-12-12-12-12-12-12-12-12-12--9-11-----12-12-12-12-12-12-12-12-12-12---------|
A|-----------------------------------------------------------------------9-11---|X1
E|------------------------------------------------------------------------------|

G |----------------------------|
D |---------11--14-----18--19--|
A |--12------------------------|  X 2
E |----------------------------|

G|-------(thats 10 of them)-----------------------------------------------------|
D|12-12-12-12-12-12-12-12-12-12--9-11-----12-12-12-12-12-12-12-12-12-12---------|
A|-----------------------------------------------------------------------9-11---|X1
E|------------------------------------------------------------------------------|

G |-------------------------------------------------------------|
D |------------------------------------(not 100%)---------------|
A |--2-2-2---2---0-0-0---0---5-5-5---5---5---4---2---0----------|X 2
E |----------------------------------(let these last 4 ring)----|

G |---------------------------|
D |---------11--14---18--19---|
A |--12-----------------------|  X 3
E |---------------------------|

G|-------(thats 10 of them)-----------------------------------------------------|
D|12-12-12-12-12-12-12-12-12-12--9-11-----12-12-12-12-12-12-12-12-12-12---------|
A|-----------------------------------------------------------------------9-11---|X1
E|------------------------------------------------------------------------------|

G |----------------------------|
D |---------11--14-----18--19--|
A |--12------------------------|  X 2
E |----------------------------|

G|-------(thats 10 of them)-----------------------------------------------------|
D|12-12-12-12-12-12-12-12-12-12--9-11-----12-12-12-12-12-12-12-12-12-12---------|
A|-----------------------------------------------------------------------9-11---|X1
E|------------------------------------------------------------------------------|

G|---------------------------------------------------------------------|
D|---------------------------------------------------------------------|
A|--2-2-2---2---0-0-0---0---5-5-5---5---5---4---2---0------------------| X 2
E|------------------------------------(again the last 4 ring)----------|

G |----------------------------------------------------------|
D |----------------------------------------------------------|
A |--0--3--5---5---4---2---0---------------------------------|  X 1
E |---------(let last 4 these ring like above)---------------|

Outro
          Note: the upper part is the guitar. If you listen closely you can hear the 
underneath.
G |---------------------------------|
D |---------------------------------|
A |---5---5---4---4---2---2---0-----| repeat until the end
E |---------------------------------|
            
Hard to play? Try these video lessons and learn fast. | Correct




comments powered by Disqus
↑ Back to top | Tablatures and chords are parodies/interpretations of the original songs. You may use it for private study, scholarship, research or language learning purposes only