» » »

Tapes N Tapes, Manitoba Tabs (ver.1)

Artists:  A B C D E F G H I J K L M N O P Q R S T U V W X Y Z # 

Manitoba Tabs (ver.1)

Tapes N Tapes Tabs
 Rating:
4.5/5 (8 votes)
Manitoba lessons Tabs too difficult? Try these video lessons and learn fast
1
                Band: Tapes ‘n Tapes
Tuning: Standard
Tabbing by: Sean Konagaya

INTRO
(0:01) ...
|-----------------------------------------------------------|
|---9---9---9-/--14--14--14-\----9---9---9-/--12--\----10---|
|-9---9---9--/-14--14--14----\-9---9---9--/-13--13-\-11--11-|
|-----------------------------------------------------------| 2x
|-----------------------------------------------------------|
|-----------------------------------------------------------|

VERSE
(0:16) Houses flow, Manitoba...
|-----------------------------------------------------------|
|---9---9---9-/--14--14--14-\----9---9---9-/--12--\----10---|
|-9---9---9--/-14--14--14----\-9---9---9--/-13--13-\-11--11-|
|-----------------------------------------------------------| 4x
|-----------------------------------------------------------|
|-----------------------------------------------------------|

CHORUS
(0:48) She’s been calling me...
|---------------------------------------------------------------------------------------|
|---9---9--9-9-9-9-9-9-9-9-9-9-9-9----9--10--12--14-14-14-14-14-14-14-14-14-14-14-14-14-|
|-9---9----9-9-9-9-9-9-9-9-9-9-9-9--9----11--13—-14-14-14-14-14-14-14-14-14-14-14-14-14-|
|---------------------------------------------------------------------------------------|
|---------------------------------------------------------------------------------------|
|---------------------------------------------------------------------------------------|
(1:01) I cannot see...
|---------------------------------------------------|
|-9--10--12--14-14-14-14-14-14-14-14-14-14-14-14-14-|
|-9--11--13--14-14-14-14-14-14-14-14-14-14-14-14-14-|
|---------------------------------------------------| x3
|---------------------------------------------------|
|---------------------------------------------------|
(1:25) You’re bad so...
|--------------|
|-19---17---16-|
|--------------|
|--------------|
|--------------|
|--------------|

VERSE
(1:28) When we came for some reason ...
|-----------------------------------------------------------|
|---9---9---9-/--14--14--14-\----9---9---9-/--12--\----10---|
|-9---9---9--/-14--14--14----\-9---9---9--/-13--13-\-11--11-|
|-----------------------------------------------------------| 4x
|-----------------------------------------------------------|
|-----------------------------------------------------------|

CHORUS
(2:00) Come to shout to leave ...
|---------------------------------------------------------------------------------------|
|---9---9--9-9-9-9-9-9-9-9-9-9-9-9----9--10--12--14-14-14-14-14-14-14-14-14-14-14-14-14-|
|-9---9----9-9-9-9-9-9-9-9-9-9-9-9--9----11--13—-14-14-14-14-14-14-14-14-14-14-14-14-14-|
|---------------------------------------------------------------------------------------|
|---------------------------------------------------------------------------------------|
|---------------------------------------------------------------------------------------|
(2:13) I cannot hide...
|---------------------------------------------------|
|-9--10--12--14-14-14-14-14-14-14-14-14-14-14-14-14-|
|-9--11--13--14-14-14-14-14-14-14-14-14-14-14-14-14-|
|---------------------------------------------------| x3
|---------------------------------------------------|
|---------------------------------------------------|
(2:38) On to the streets...
|---------------|
|-19---17---21\-|
|---------------|
|---------------|
|---------------|
|---------------|

OUTRO
(2:40) ...
|---------------------------------------|
|-9-----9-9----9-9-9-9-----9-9----9-9-9-|
|-9-----9-9----9-9-9-9-----9-9----9-9-9-|
|-9-----9-9----9-9-910----1010---101010-| x4
|---------------------------------------|
|---------------------------------------|


(3:25) ...
|---------------------------------------|
|-9-----9-9----9-9-9-9-----9-9----9-9-9-|
|-9-----9-9----9-9-9-9-----9-9----9-9-9-|
|-9-----9-9----9-9-910----1010---101010-| REST OF THE SONG
|---------------------------------------|
|---------------------------------------|
|     
|-----------------|
|-----------------|
|-----------------|
|-----------------| REST OF THE SONG
|-77-777-777-77-7-|
|-----------------|
*NOTE: DISTORTED AND PLAYED AT THE SAME TIME
            
Submit corrections

comments powered by Disqus
↑ Back to top | Tapes N Tapes Tabs for Manitoba. Lyrics for acoustic guitar and electric guitar. 1 Tablatures and chords are parodies/interpretations of the original songs. You may use it for private study, scholarship, research or language learning purposes only