» » »

Tapes N Tapes, In Houston Tabs (ver.1)

Artists:  A B C D E F G H I J K L M N O P Q R S T U V W X Y Z # 

In Houston Tabs (ver.1)

Tapes N Tapes Tabs
Rating:
0/5 (0 votes)
In Houston lessons Tabs too difficult? Try these video lessons and learn fast
                In Houston by Tapes 'n Tapes

Vibraphone intro

e-----11-9-----------------11-9---------9---|
B--9--------9--12-------9--------9--12------|
G-------------------11----------------------|
D-------------------------------------------|
A-------------------------------------------|
E-------------------------------------------|

for those on keys the notes are:

Ab Eb C# Ab B - F# - Ab Eb C# Ab B - C#

Guitar part 1

e--4--7--7-4--4---6--6--6-4--4-----4-----4-----4--4--4-4-4-|
B--5--5--5-5--5---5--5--5-5--5-----4-----4-----4--4--4-4-4-|
G--4--4--4-4--4---4--4--4-4--4-----4-----4-----4--4--4-4-4-|
D--6--6--6-6--6---6--6--6-6--6--x--6--x--6--x--6--6--6-6-6-|
A--4--4--4-4--4---4--4--4-4--4--x--6--x--6--x--6--6--6-6-6-|
E-------------------------------x--4--x--4--x--4--4--4-4-4-|

for the first part you barre a C#m7 and then alternate the note on the E string with
pinky. the second part is just a G#m barre.

Guitar part 2 (in the recording there is no guitar here)

e----------------------------|
B----------------------------|
G----------------------------|
D--6-6----6-6----6-6----6-6--|
A--6-6----6-6----6-6----6-6--|
E--4-4----4-4----2-2----2-2--|

here you barre a G#m and then bring your index finger down to the second fret.

Guitar part 3

e----------|
B----------|
D--12--13--|
G--13--14--|
A--13--14--|
E--11--12--|

just 2 barre chords up high (Eb, E on the keyboard)

Guitar Part 4

e------------------|
B------------------|
G--17--15--14--13--|
D--18--14--13--14--|
A--18--14--13--14--|
E--16--12--11--12--|

three up high barre chords (G#, E, Eb)


Guitar part 5 (pick much faster than transcribed)

e---------------------------------------------------------------------------------------------------------|
B---------------------------------------------------------------------------------------------------------|
G--13---13--13--13--13--13---15---15--15--15--15--15---16---16--16--16--16--16--18---18--18hb18hb18hb18fb-|
D---------------------------------------------------------------------------------------------------------|
A--11---11--11--11--11--11---13---13--13--13--13--13---14---14--14--14--14--14--16---16--16--16--16--16---|
E---------------------------------------------------------------------------------------------------------|

put your index finger on the A string and your ring finger on the G string. the second 
has a slightly different rhythm.

there is no guitar in the bridge, but live josh plays guitar part 2 in rhythm with bass.

end with two repetitions of guitar part 3 and then a G#m chord
  G#m
e--4--
B--4--
G--4--
D--6--
A--6--
E--4--

have fun
            

comments powered by Disqus
↑ Back to top | Tapes N Tapes Tabs for In Houston. Lyrics for acoustic guitar and electric guitar. Tablatures and chords are parodies/interpretations of the original songs. You may use it for private study, scholarship, research or language learning purposes only