» » »

Cowbell Tabs (ver.1)

Artists:  A B C D E F G H I J K L M N O P Q R S T U V W X Y Z # 

Cowbell Tabs (ver.1)

Tapes N Tapes
Rating:
5/5 (1 vote)

Tabs too difficult? Try these video lessons and learn fast.
                "cowbell" by tapes 'n tapes
available on "the loon"

listen to the cd for strumming.

chord voicings
  Ebm7 B7  Bb7
e--6---7---6--|
B--7---7---6--|
G--6---8---7--|
D--8---7---6--|
A-(6)-(9)-(8)-|
E-(6)-(7)-(6)-|

Intro - Ebm7 B7 Ebm7 B7 Ebm7 B7 Ebm7 B7

verse

Ebm7     B7   Ebm7 B7
leave me now
  Ebm7  B7      Ebm7   B7
in solitude and stress
     Ebm7   B7     Ebm7  B7        Ebm7   B7 Ebm7 B7
i've been a better lover with your mother
Ebm7      B7     Ebm7 B7
stars and cheeks
  Ebm7     B7       Ebm7  B7
i hate you from the heart
  Ebm7   B7
i came i went
  Ebm7    B7
i jawed i saw
    Ebm7      B7        Ebm7     B7
you came came went went you know i saw

chorus
Ebm7
you wanna live a lie? a lie to shake
a lie shake, i've been so sure
Bb7
you wanna live? live a lie, a lie to shake
lie, i've been so sure
Ebm7
you wanna live a lie? a lie to shake
lie, i've been so sure
Bb7
you wanna live? live a lie, a lie to shake
live
i've been so sure

instrumental break

part 1 part 2 part 1 part 2 part 2 part 2 part 2 Ebm7

   part 1
e|-----------------------------------|
B|-----------------------------------|
G|-----------------------------------|
D|-----------------------------------|
A|-----------------------------------|
E|-6-6-6-6-6-6-6-4-4-4-4-11-11-11-11-|
                                  Part 2
                                   F#7
--------------------------------|--2--2--|
--------------------------------|--2--2--|
--------------------------------|--3--3--|
--------------------------------|--2--2--|
--------------------------------|-(4)----|
-2-2-2-2-2-2-2-2-1-1-1-1-1-1-1-1|-(2)----|
          F7
-2-2-2-2--1--1-1-1-|
-2-2-2-2--1--1-1-1-|
-3-3-3-3--2--2-2-2-|
-2-2-2-2--1--1-1-1-|
---------(3)-------|
---------(1)-------|

for the second verse you hold out the notes legato until RUN RUN RUN

and then play the verse normally up until the chorus, which you play

once and for the end you play

e---------------------------------|
B---------------------------------|
G---------------------------------|
D-8-8-8-8-8-8-8-8-6-6-6-6-6-6-6-6-|
A---------------------------------|
E---------------------------------|

---------------------------------|
---------------------------------|
---------------------------------|
-8-8-8-8-8-8-8-8-3-3-3-3-3-3-3-3-|
---------------------------------|
---------------------------------| X2

and end with Ebm7 Bb7 Ebm7
            
Tabs too difficult? Try these video lessons and learn fast.


comments powered by Disqus
↑ Back to top | Tablatures and chords are parodies/interpretations of the original songs. You may use it for private study, scholarship, research or language learning purposes only