» » »

San Antonio Stroll Tabs (ver.1)

Artists:  A B C D E F G H I J K L M N O P Q R S T U V W X Y Z # 

San Antonio Stroll Tabs (ver.1)

Tanya Tucker
Rating:
0/5 (0 votes)

Hard to play? Try these video lessons and learn fast.
                
    Intro
E---|-------------------------------------------------------------------|--
B---|--5h7--5---------------------------------------2p0-----0--2--0-----|--
G---|---------6--------4h6--4--------------------1-------2-----------2--|--
D---|------------7--7----------7--4--2--0--2--4-------------------------|--
A---|-------------------------------------------------------------------|--
E---|-------------------------------------------------------------------|--

    Main Lick - usually repeated twice
E---|-----------------------------------------------------7-------------|--
B---|--10--9--7-----7--------7h9/10--10--9--7--7--7h9/10-----10--9--10--|--
G---|------------9-----9--9---------------------------------------------|--
D---|-------------------------------------------------------------------|--
A---|-------------------------------------------------------------------|--
E---|-------------------------------------------------------------------|--
            
Hard to play? Try these video lessons and learn fast. | Correct




comments powered by Disqus
↑ Back to top | Tablatures and chords are parodies/interpretations of the original songs. You may use it for private study, scholarship, research or language learning purposes only