>
 >
Picture Picture

Picture Picture Guitar Tabs

Tanya Markova - Picture Picture chords, tabs, tablatures, lyrics

Guitar lessons | Add/correct | Request | Top 50 tabs Artists:  A B C D E F G H I J K L M N O P Q R S T U V W X Y Z 0-9

Picture Picture Guitar Tabs – Tanya Markova

CD, Sheet music, Poster

Do you like Picture Picture? Share with your friends now
ChordsChords v2TabsUkulele
********

Picture Picture by Tanya Markova

********

Chords:

Intro and Verse

F# - G - F# Em

Chorus

G - D

********

Intro A:

e|---0---|
b|---2---|
g|---2---|
d|---4---|
a|-------|
e|-------|

Picture picture, oh...

e|---2---|      |-------|
b|---3---|      |---7---|
g|---4---|  OR  |---4---|
d|---5---|      |---5---|
a|-------|      |-------|
e|-------|      |-------|

Picture picture, oh...

e|---0---|
b|---2---|
g|---2---|
d|---4---|
a|-------|
e|-------|

Picture picture, oh...

e|-------|      |-------|
b|---3---|      |---3---|
g|---4---|  OR  |---0---|
d|---5---|      |---2---|
a|-------|      |-------|
e|-------|      |-------|

Picture picture oh...

Intro B:

e|--00--000--000--0000------|
b|--22--222--222--2222------|
g|--22--222--222--2222------|
d|--44--444--444--4444------|
a|--------------------------|
e|--------------------------|

Picture picture, oh...

e|--22--222--222--2222------|      |------------------------|
b|--33--333--333--3333------|      |---77--777--777--7777---|
g|--44--444--444--4444------|  OR  |---44--444--444--4444---|
d|--55--555--555--5555------|      |---55--555--555--5555---|
a|--------------------------|      |------------------------|
e|--------------------------|      |------------------------|

Picture picture, oh...

e|--00--000--000--0000------|
b|--22--222--222--2222------|
g|--22--222--222--2222------|
d|--44--444--444--4444------|
a|--------------------------|
e|--------------------------|

Picture picture, oh...

e|--------------------------|      |------------------------|
b|--33--333--333--3333------|      |---33--333--333--3333---|
g|--44--444--444--4444------|  OR  |---00--000--000--0000---|
d|--55--555--555--5555------|      |---22--222--222--2222---|
a|--------------------------|      |------------------------|
e|--------------------------|      |------------------------|

Picture picture, oh...

********

e|---0---|
b|---2---|
g|---2---|
d|---4---|
a|-------|
e|-------|

Nang gabing masilayan

e|---2---|      |-------|
b|---3---|      |---7---|
g|---4---|  OR  |---4---|
d|---5---|      |---5---|
a|-------|      |-------|
e|-------|      |-------|

ka...

e|---0---|
b|---2---|
g|---2---|
d|---4---|
a|-------|
e|-------|

Dala-dala ko pa ang aking

e|-------|      |-------|
b|---3---|      |---3---|
g|---4---|  OR  |---0---|
d|---5---|      |---2---|
a|-------|      |-------|
e|-------|      |-------|

lumang kamera...

********
(Intro B)

e|--00--000--000--0000------|
b|--22--222--222--2222------|
g|--22--222--222--2222------|
d|--44--444--444--4444------|
a|--------------------------|
e|--------------------------|

Picture picture, oh...

e|--22--222--222--2222------|      |------------------------|
b|--33--333--333--3333------|      |---77--777--777--7777---|
g|--44--444--444--4444------|  OR  |---44--444--444--4444---|
d|--55--555--555--5555------|      |---55--555--555--5555---|
a|--------------------------|      |------------------------|
e|--------------------------|      |------------------------|

Picture picture, oh...

e|--00--000--000--0000------|
b|--22--222--222--2222------|
g|--22--222--222--2222------|
d|--44--444--444--4444------|
a|--------------------------|
e|--------------------------|

Picture picture, oh...

e|--------------------------|      |------------------------|
b|--33--333--333--3333------|      |---33--333--333--3333---|
g|--44--444--444--4444------|  OR  |---00--000--000--0000---|
d|--55--555--555--5555------|      |---22--222--222--2222---|
a|--------------------------|      |------------------------|
e|--------------------------|      |------------------------|

Picture picture, oh...

********

e|---0---|
b|---2---|
g|---2---|
d|---4---|
a|-------|
e|-------|

Campus gig noon nang

e|---2---|      |-------|
b|---3---|      |---7---|
g|---4---|  OR  |---4---|
d|---5---|      |---5---|
a|-------|      |-------|
e|-------|      |-------|

magyaya ang tropa...

e|---0---|
b|---2---|
g|---2---|
d|---4---|
a|-------|
e|-------|

Maraming bebot ang nagsasayaw

e|-------|      |-------|
b|---3---|      |---3---|
g|---4---|  OR  |---0---|
d|---5---|      |---2---|
a|-------|      |-------|
e|-------|      |-------|

nang biglang

  E
mapansin kita!

********

Chorus:

G                D
What a beautiful face…

   D
At kinunan kita...

G                D
what a beautiful face…

  D
Angat ka sa iba...

G
Picture picture, oh... Picture picture.

D
Picture picture, oh... Picture picture.

G                                  D
What a beautiful, what a beautiful face...

********

e|---0---|
b|---2---|
g|---2---|
d|---4---|
a|-------|
e|-------|

I saw her

e|---2---|      |-------|
b|---3---|      |---7---|
g|---4---|  OR  |---4---|
d|---5---|      |---5---|
a|-------|      |-------|
e|-------|      |-------|

face...

e|---0---|
b|---2---|
g|---2---|
d|---4---|
a|-------|
e|-------|

Muka siyang taga aaawter

e|-------|      |-------|
b|---3---|      |---3---|
g|---4---|  OR  |---0---|
d|---5---|      |---2---|
a|-------|      |-------|
e|-------|      |-------|

space...

e|--00--000--000--0000------|
b|--22--222--222--2222------|
g|--22--222--222--2222------|
d|--44--444--444--4444------|
a|--------------------------|
e|--------------------------|

Si Mang Ro-

e|--22--222--222--2222------|      |------------------------|
b|--33--333--333--3333------|      |---77--777--777--7777---|
g|--44--444--444--4444------|  OR  |---44--444--444--4444---|
d|--55--555--555--5555------|      |---55--555--555--5555---|
a|--------------------------|      |------------------------|
e|--------------------------|      |------------------------|

-ger, ako'y kinalabit...

e|--00--000--000--0000------|
b|--22--222--222--2222------|
g|--22--222--222--2222------|
d|--44--444--444--4444------|
a|--------------------------|
e|--------------------------|

Ang sabi'y

e|--------------------------|      |------------------------|
b|--33--333--333--3333------|      |---33--333--333--3333---|
g|--44--444--444--4444------|  OR  |---00--000--000--0000---|
d|--55--555--555--5555------|      |---22--222--222--2222---|
a|--------------------------|      |------------------------|
e|--------------------------|      |------------------------|

Halikana balot muna bago ka mag-konica


[Ang plucking dito, madali lang. Tignan sa pinakababa, pagkatapos ng kanta...]
[Palm-mute po, tuloy tuloy hanggang pumasok yung chorus...]

TANDAAN P A L M M U T E

e|--00--000--000--0000------|
b|--22--222--222--2222------|
g|--22--222--222--2222------|
d|--44--444--444--4444------|
a|--------------------------|
e|--------------------------|

na seramika, gawa sa pabrika

e|--22--222--222--2222------|      |------------------------|
b|--33--333--333--3333------|      |---77--777--777--7777---|
g|--44--444--444--4444------|  OR  |---44--444--444--4444---|
d|--55--555--555--5555------|      |---55--555--555--5555---|
a|--------------------------|      |------------------------|
e|--------------------------|      |------------------------|

lagot ka na, ang kamera may mahika

e|--00--000--000--0000------|
b|--22--222--222--2222------|
g|--22--222--222--2222------|
d|--44--444--444--4444------|
a|--------------------------|
e|--------------------------|

ano ang lohika kung ba't nahilo ka


Em (break)
Mekaniko si Moniko ng makina ni Monica

********

REPEAT CHORUS

********

e|---0---|
b|---2---|
g|---2---|
d|---4---|
a|-------|
e|-------|

Meron siyang look-alike na...

e|---2---|      |-------|
b|---3---|      |---7---|
g|---4---|  OR  |---4---|
d|---5---|      |---5---|
a|-------|      |-------|
e|-------|      |-------|

Meron siyang look-alike na...

e|---0---|
b|---2---|
g|---2---|
d|---4---|
a|-------|
e|-------|

Meron siyang look-alike na...

e|-------|      |-------|
b|---3---|      |---3---|
g|---4---|  OR  |---0---|
d|---5---|      |---2---|
a|-------|      |-------|
e|-------|      |-------|

Meron siyang look-alike na...

e|---0---|
b|---2---|
g|---2---|
d|---4---|
a|-------|
e|-------|

Meron siyang look-alike na...

e|---2---|      |-------|
b|---3---|      |---7---|
g|---4---|  OR  |---4---|
d|---5---|      |---5---|
a|-------|      |-------|
e|-------|      |-------|

Meron siyang look-alike na...

e|---0---|
b|---2---|
g|---2---|
d|---4---|
a|-------|
e|-------|

Meron siyang look-alike na...

e|-------|      |-------|
b|---3---|      |---3---|
g|---4---|  OR  |---0---|
d|---5---|      |---2---|
a|-------|      |-------|
e|-------|      |-------|

MEKANIKO SI MONIKO NG MAKINA NI MONIKA!!!

********

REPEAT CHORUS

********

END!

********


Yung plucking dun sa part na weird (tungkol sa seramika, lohika, at makina)

e|-----0--------|
b|-------2-2----|
g|---2----2-----| x2
d|--4-4---------| 
a|--------------|
e|--------------|

na seramika, gawa sa pabrika

e|-----3--3--3------|
b|------3--3--3-3---|
g|---4---4--4--4----|
d|--5-5-------------|
a|------------------|
e|------------------|

lagot ka na, ang kamera may mahika

e|-----0--------|
b|-------2-2----|
g|---2----2-----| x2
d|--4-4---------| 
a|--------------|
e|--------------|

ano ang lohika kung ba't nahilo ka

Em (break)
Mekaniko si Moniko ng makina ni Monica


********

Nga pala, eto yung lead na dalawang nota lang (o tono)

e|---------------------|
b|---------------------|
g|---------------------| x2
d|-----13-13----13-13--| 
a|--15-------15--------|
e|---------------------|

Paglaruan niyo nalang yang lead.

********

Sa Chorus, eto mga chords.

     G

e|---3---|
b|---3---|
g|---4---|
d|---5---|
a|---5---|
e|---3---|


           D

e|---2---|    |---5---|
b|---3---|    |---7---|
g|---2---| or |---7---|
d|-------|    |---7---|
a|-------|    |---5---|
e|-------|    |-------|


Pwedeng power chords nalang.

********

Ciao!





Comments


Popular Tanya Markova tabs & chords
Curfew Chords
Da Facebook Song Chords
Da Facebook Song 1 Chords
Jacuzzi Chords
Linda Blair Chords
Mim Chords
Linda Blair Tabs
Aninong Ukulele
Disney Ukulele
Mim Ukulele


Song lyrics



↑ Back to top | Tablatures and chords are parodies/interpretations of the original songs. You may use it for private study, scholarship, research or language learning purposes only
© 2014 AZChords.com Contact us | Privacy policy | DMCA | Add/correct tabs | Request tabs | Top 50 tabs