>
 >
Hoy Bampira Ako Takot Ka Na

Hoy Bampira Ako Takot Ka Na Guitar Tabs

Tanya Markova - Hoy Bampira Ako Takot Ka Na chords, tabs, tablatures, lyrics

Guitar lessons | Add/correct | Request | Top 50 tabs Artists:  A B C D E F G H I J K L M N O P Q R S T U V W X Y Z 0-9

Hoy Bampira Ako Takot Ka Na Guitar Tabs – Tanya Markova

CD, Sheet music, Poster

Do you like Hoy Bampira Ako Takot Ka Na? Share with your friends now
ChordsTabsUkulele
HOY! BAMPIRA AKO (TAKOT KA NA) by Tanya Markova


* drop D tuning itow....


INTRO:

guitar 1:

e|----------------------------------|
B|----------------------------------|
G|-5/7-5----------------------------|
D|-------7-6-5----------------------|
A|-------------8-5-3-5----------8b--|
E|----------------------5-7-5-7-----|

tapos...

guitar 2:

e|-----------------------------------------|
B|------------------6-6b-------------------|
G|-7-5--7-5--7-5--7-------5-7-5-x-5-5-5-5--| 4x
D|-----------------------------------------|
A|-----------------------------------------|
E|-----------------------------------------|


CHORUS:

e|----------------------------------|
B|----------------------------------|
G|----------------------------------| 2x
D|----------------------------------|
A|-0~-6p5p3-0~-6p5p3-0~-6p5p3-0~-6--|
E|-0~-6p5p3-0~-6p5p3-0~-6p5p3-0~-6--|


VERSE:

guitar 2:

e|-----------------------------------------|
B|------------------6-6b-------------------|
G|-7-5--7-5--7-5--7-------5-7-5-x-5-5-5-5--| 4x
D|-----------------------------------------|
A|-----------------------------------------|
E|-----------------------------------------|

* after ng 2 counts, papasok yung guitar 1...

guitar 1:

e|------------------    --------------|
B|------------------    --------------|
G|------------------ 3x -----5--------|
D|------------------    -5/7---7-5----|
A|-3/5-x-x-5\3-x-x--    -----------8--|
E|------------------    --------------|

e|------------------    --------------------|
B|------------------    --------------------|
G|------------------ 3x --------------------|
D|------------------    -----3--------------|
A|-3/5-x-x-5\3-x-x--    -3/5---5-3----------|
E|------------------    -----------6-5-3-0--|


REFRAIN:

e|--------------------------------------------------|
B|--------------------------------------------------|
G|--------------------------------------------------|
D|--------------------------------------------------|
A|-8-x-x-8-x-x-8-x-x-8-x-x-7-x-x-7-x-x-7-x-x-7-x-x--|
E|-8-x-x-8-x-x-8-x-x-8-x-x-7-x-x-7-x-x-7-x-x-7-x-x--|

e|-------------------------------------------|
B|-------------------------------------------|
G|-------------------------------------------|
D|---------------------------------------7---|
A|-8-x-x-8-x-x-8-x-x-8-x-x-7-7-7-7-7-7-7-5---|
E|-8-x-x-8-x-x-8-x-x-8-x-x-7-7-7-7-7-7-7-----|


CHORUS:

e|----------------------------------|
B|----------------------------------|
G|----------------------------------| 2x
D|----------------------------------|
A|-0~-6p5p3-0~-6p5p3-0~-6p5p3-0~-6--|
E|-0~-6p5p3-0~-6p5p3-0~-6p5p3-0~-6--|


uulitin lang yung verse, refrain at chorus....


BRIDGE:
Dm              G                   C      A A/C#
 May tinatago kaming malungkot na nakaraan
  Dm                 G                C    A A/C#
 Aming kinikimkim na galit bunga ng karanasan

* tapos gagawing power chords sa next two lines...


CHORUS:

e|----------------------------------|
B|----------------------------------|
G|----------------------------------| 4x
D|----------------------------------|
A|-0~-6p5p3-0~-6p5p3-0~-6p5p3-0~-6--|
E|-0~-6p5p3-0~-6p5p3-0~-6p5p3-0~-6--|


OUTRO:

e|--------------------------------------|
B|--------------------------------------|
G|-5/7-5--------------------------------|
D|-------7-6-5--------------------------|
A|-------------8-5-3-5----0---0---3-5~--|
E|----------------------5---5---5---0~--|


* pakinggan nalang para sa timing...
* di ako sigurado sa ibang parte dito... malugod na tinatanggap ang mga corrections 
dito.. :)




NITRAM
04-22-11
05:49 PM





Comments


Popular Tanya Markova tabs & chords
Curfew Chords
Da Facebook Song Chords
Da Facebook Song 1 Chords
Hoy Bampira Ako Takot Ka Na Chords
Picture Picture Chords
Picture Picture 1 Chords
Disney Tabs
Da Facebook Song Ukulele
Linda Blair Ukulele
Mim Ukulele


Song lyrics



↑ Back to top | Tablatures and chords are parodies/interpretations of the original songs. You may use it for private study, scholarship, research or language learning purposes only
© 2014 AZChords.com Contact us | Privacy policy | DMCA | Add/correct tabs | Request tabs | Top 50 tabs