» » »

Tanya Markova, Bye Bye Mosquito Tabs (ver.1)

Artists:  A B C D E F G H I J K L M N O P Q R S T U V W X Y Z # 

Bye Bye Mosquito Tabs (ver.1)

Tanya Markova Tabs
Rating:
0/5 (0 votes)
Hard to play? Try these video lessons and learn fast.
                BYE BYE MOSQUITO by Tanya Markova


INTRO:

e|--------------------------------------|
B|--------------------------------------|
G|--------------------------------------| 2x
D|--------------------------------------|
A|-0----2---3--/5---3--5-7-8-8--7-5-0~--|
E|-0----2---3--/5---3--5-7-8-8--7-5-0~--|


VERSE:
Dm        C           Bb
 Sinilang ka sa may kan*l
          C             Dm
 ng nanay mo'ng isang hangal
           C               Bb   A
 Maggot pa noong ika'y makilala

Dm         C          Bb
 Isang linggong pinalaki
         C            Dm
 kaya ngayo'y nangangati
         C            Bb    A-Bb-A-Bb-A-Bb-A-Bb
 Nagulat nang ika'y mawalay


CHORUS:

   Bye bye mos qui to     bye........
e|-------------------------------------|
B|-------------------------------------|
G|-------------------------------------| 2x
D|-------------------------------------|
A|-0---2---3--/5---3--5-7-8-8--7-5-0~--|
E|-0---2---3--/5---3--5-7-8-8--7-5-0~--|


VERSE: parehas din ng chord pattern...

 Dear God, please help my friend Guiller? mosquito

 to commit himself in the kingdom of heaven

 At sana po, wag niyo syang pababayaan at laging paiinumin

 ng dugo!


Fill in:
   wa sak du rog  pa tay na ang a  la ga ko
e|------------------------------------------|
B|------------------------------------------|
G|------------------------------------------|
D|------------------------------------------|
A|-8--7---8--7----8--7---8--7---8--7--8--7--|
E|-8--7---8--7----8--7---8--7---8--7--8--7--|

e|-----------------------------|
B|-----------------------------|
G|-----------------------------|
D|-----------------------------|
A|-8-7--8-7--8-7-8-7-8-7-8-3~--|
E|-8-7--8-7--8-7-8-7-8-7-8-3~--|


CHORUS:

   Bye bye mos qui to     bye........
e|-------------------------------------|
B|-------------------------------------|
G|-------------------------------------| 2x
D|-------------------------------------|
A|-0---2---3--/5---3--5-7-8-8--7-5-0~--|
E|-0---2---3--/5---3--5-7-8-8--7-5-0~--|


Fill in:

   bye bye  bye bye  bye bye  ba ba ba ba bye
e|-------------------------------------------|
B|-------------------------------------------|
G|-6---7-------------------------------------| 2x
D|-6---7-------------------------------------|
A|-4---5----2---3----5---3----8--7--5--3--2--|
E|----------2---3----5---3----8--7--5--3--2--|

   bye.............   bye.............   woooo.............
e|-----------------------------------------------------------|
B|-----------------------------------------------------------|
G|-6-6-6-6--7-7-7-7------------------------------------------|
D|-6-6-6-6--7-7-7-7------------------------------------------|
A|-4-4-4-4--5-5-5-5---2-2-2-2--3-3-3-3---5-5-5-5-8-8-8-8-7\--|
E|--------------------2-2-2-2--3-3-3-3---5-5-5-5-8-8-8-8-7\--|

   nasan ka na namimiss na kita.............
e|--------------------------------------------|
B|--------------------------------------------|
G|-6-7----------------------------------------|
D|-6-7----------------------------------------|
A|-4-5---2--3--2-3-5----3--5-7-7-7-7-7-7-7-7--|
E|-------2--3--2-3-5----3--5-7-7-7-7-7-7-7-7--|


BRIDGE:

Na'san na'ng alaga ko?

                      e|------------------|
                      B|------------------|
                      G|------------------|
                      D|------------------|
                      A|-7-8--5-7--3-5-2--|
                      E|-7-8--5-7--3-5-2--|

Na'san na'ng alaga ko?

                      e|------------------|
                      B|------------------|
                      G|------------------|
                      D|------------------|
                      A|-7-8--5-7--3-5-2--|
                      E|-7-8--5-7--3-5-2--|

   Guiller   Guiller   nasan ng a   laga ko?
e|-------------------------------------------|
B|-------------------------------------------|
G|-------------------------------------------|
D|-------------------------------------------|
A|-7---12----7---12----7-7---12-12--7-7--12--|
E|-7---12----7---12----7-7---12-12--7-7--12--|


Na'san na'ng alaga ko?

                      e|------------------|
                      B|------------------|
                      G|------------------|
                      D|------------------|
                      A|-7-8--5-7--3-5-2--|
                      E|-7-8--5-7--3-5-2--|

Na'san na'ng alaga ko?

                      e|------------------|
                      B|------------------|
                      G|------------------|
                      D|------------------|
                      A|-7-8--5-7--3-5-2--|
                      E|-7-8--5-7--3-5-2--|

   Guiller   Guiller   bangaw
e|--------------------------|
B|--------------------------|
G|--------------------------|
D|--------------------------|
A|-7---12----7---12----8-7--|
E|-7---12----7---12----8-7--|

   Guiller   Guiller   langaw
e|--------------------------|
B|--------------------------|
G|--------------------------|
D|--------------------------|
A|-7---12----7---12----8-7--|
E|-7---12----7---12----8-7--|

   Guiller   Guiller   lugaw
e|--------------------------|
B|--------------------------|
G|--------------------------|
D|--------------------------|
A|-7---12----7---12----8-7--|
E|-7---12----7---12----8-7--|

   nasan ng a laga ko............................?
e|-------------------------------------------------|
B|-------------------------------------------------|
G|-------------------------------------------------|
D|-------------------------------------------------|
A|-8-7---5--3-2-5--7-7-7-7-8-8-8-8-7-7-7-7-7-7-7-7-|
E|-8-7---5--3-2-5--7-7-7-7-8-8-8-8-7-7-7-7-7-7-7-7-|


CHORUS:

e|-------------------------------------|
B|-------------------------------------|
G|-------------------------------------| 3x
D|-------------------------------------|
A|-0---2---3--/5---3--5-7-8-8--7-5-0~--|
E|-0---2---3--/5---3--5-7-8-8--7-5-0~--|

e|----------------------------------|
B|----------------------------------|
G|----------------------------------|
D|----------------------------------|
A|-0---2---3--/5---3--5-7-8-8--1-0~-|
E|-0---2---3--/5---3--5-7-8-8--1-0~-|


* siguro 85% lang accuracy nito.. pero katunog naman, pwede na yon.. :)
* tsaka, ano daw pangalan nung alaga niyang lamok? di ko marinig e.. salamat sa 
makakasagot.. :)
* naka-DROP D nga pala 'to



NITRAM
01-21-11
07:10 PM
            

comments powered by Disqus
↑ Back to top | Tanya Markova Tabs for Bye Bye Mosquito. Lyrics for acoustic guitar and electric guitar. Tablatures and chords are parodies/interpretations of the original songs. You may use it for private study, scholarship, research or language learning purposes only