» » »

Tantric, The Past Is The Past Tabs (ver.1)

Artists:  A B C D E F G H I J K L M N O P Q R S T U V W X Y Z # 

The Past Is The Past Tabs (ver.1)

Tantric Tabs
Rating:
0/5 (0 votes)
The Past Is The Past lessons Tabs too difficult? Try these video lessons and learn fast
                (Intro)
Tuning: Half Step Down I Think

I think it is in half step down. I don't know if it is all correct but i kind of 
have the beginning down. I'll need help figuring
the rest out.

            Intro (Acoustic) I'm not sure about this Please correct it if you can 
i would really appreciate it 
 
|---------------------------------------------------|
|---------------------------------------------------| These might be hammer 
|---------------------------------0-----------------|
|---------------------0---0-2-3-4-------------------| ons
|----------0--0-2-3-4-------------------------------|
|---0-2-3-4-----------------------------------------|

              x2 for this part

|--2----0----2---0----0-----0-------------------------|  he slides to some 
|--3----3----3---3----2-----3-------------------------|  other frets and
|--2----2----2---2----2-----2-------------------------|  i am not sure of 
|--0----0----0---0----0-----0-------------------------|   the tuning
|---------------------0-------------------------------|
|-----------------------------------------------------|

 Harmonic
|-----------|
|-----------|
|-----------|
|-----------|
|-----5-----|
|-----------|

|-------------------------------------|
|-------------------------------------| Weird background noise
|-------11~--9~-----------------------|
|-------------------------------------|
|-------------------------------------|
|-------------------------------------|
            
Submit corrections

comments powered by Disqus
↑ Back to top | Tantric Tabs for The Past Is The Past. Lyrics for acoustic guitar and electric guitar. Tablatures and chords are parodies/interpretations of the original songs. You may use it for private study, scholarship, research or language learning purposes only