» » »

Tantric, Paranoid Tabs (ver.1)

Artists:  A B C D E F G H I J K L M N O P Q R S T U V W X Y Z # 

Paranoid Tabs (ver.1)

Tantric Tabs
Rating:
4/5 (2 votes)
Paranoid lessons Tabs too difficult? Try these video lessons and learn fast
                Tantric - Paranoid
Tantric

This ones for all you pot smokers :)

High Drop Db
Eb, Ab, Db, Gb, Bb, Db

Verse”

...your so afraid...

d----------------------2---2-----
b------------------3-----3-------
g---------0------4---0-------0---
d-----2-----2--------------------
a---2---2-----2------------------
e-0------------------------------


Pre Chorus: PM single notes
d----------------------------------
b-3-------3-3-3-3---3-3---5--------
g-5-------5-5-5-5---5-5---7--------
d-5-------5-5-5-4---5-5-x-7--------
a-3-3-3-3-3-3-3-3-3-3-3-x-5-5-5-5--
e----------------------------------

 I'm feeling paranoid...
d-------------------------
b-------------------------
g-------------------------
d--------5----------------
a------3---0--------------
e----5--------------------

 Chorus: Gtr 2 plays powerchords listed

  E5       G5    A5        C5 D5    E5       A5
d-------0----------------0----------------0-------------0---------
b-----3--------3-------3----------------3-------3-----3-----------
g---0--------0-------0-------0--------0-------0-----0-------------
d------------------------------0------------------------------5---
a----------------0---------3----------------------0-------0-3---0-
e-0--------3------------------------0-------3---------------------


Guitar Solo:
d-----------------------------------------------------------------
b-----------------------------------------------------------------
g-14b-14b-14b-14-12---12-14-14b-14-12---12-14-14b-14-12--12-14----
d------------------14----------------14----------------14---------
a-----------------------------------------------------------------
e------------------------------------------------------------------

d-------------------------------14----16----17----19----19---19b~-
b------------------------15-12----12----12----12------------------
g-14b-14-12----12-14-14b~----------------------------16----16-----
d-----------14----------------------------------------------------
a-----------------------------------------------------------------
e-----------------------------------------------------------------

 Riff A (2 gtr's)still the solo         end of Riff A

d----------------------------------------------------|
b-7h8-7---7h8-7--------------------------------------|
g-------7--------7-----------------/9-------------4--|
d-----------9-7-----9-7-5-------------5h7p5---5h7----|
a---------------10-10-9-7-10-9-7-5----------7--------|
e-------------------------10-5-3-0-------------------|

                 end of gtr solo
d-------------------------------
b-------------------------------
g-7h9p7---------------------/9--
d-------9-----------------5-----
a---------0h2p0---0h2p0---------
e---------------3-------3-------


Fill 1: 4x

d--0-0-0-0-0-0-0-0-0-0-0-0----
b-/5-5-5-5-5-5-5-5-5-5-5-5----
g-----------------------------
d-----------------------------
a-----------------------------
e-----------------------------

chorus again
w/ fill 1 3rd time
Riff A 4th time only



we were sh*t on the whole time we were trying to get a record
deal.  Everybody was going whatever dude you ain't got no dance
steps, you aint got no cute outfit, you ain't sh*t...f**k them
look at us now -- Hugo Ferreira       right on Hugo!

trevor jones
            

comments powered by Disqus
↑ Back to top | Tantric Tabs for Paranoid. Lyrics for acoustic guitar and electric guitar. Tablatures and chords are parodies/interpretations of the original songs. You may use it for private study, scholarship, research or language learning purposes only