» » »

Love Song Tabs (ver.1)

Artists:  A B C D E F G H I J K L M N O P Q R S T U V W X Y Z # 

Love Song Tabs (ver.1)

Tantric
Rating:
0/5 (0 votes)

Hard to play? Try these video lessons and learn fast.
                Tantric


I play this with a capo on the second fret I think it makes it sound better
it may not go 14-13-12-11 in the intro, but that's as close as I could get it
ps I left out some of the simple stuff lolz and the really hard stuff.

Intro
e---------------------------------------------------------------|
B---------------------------------------------------------------|
G---------------------------------------------------------------|
D----2---7--8--9-9---2-2-14--2---7--8--9-9---2-2-13-------------|
A----2---7--8--9-9---2-2-14--2---7--8--9-9---2-2-13-------------|
D----2---7--8--9-9---2-2-14--2---7--8--9-9---2-2-13-------------|

Intro
e---------------------------------------------------------|
B---------------------------------------------------------|
G---------------------------------------------------------|
D----2---7--8--9-9---2-2-12--2---7--8--9------------------|
A----2---7--8--9-9---2-2-12--2---7--8--9------------------|
D----2---7--8--9-9---2-2-12--2---7--8--9------------------|


x2
e---------------------------------------------------------------------------|
B---------------------------------------------------------------------------|
G---------------------------------------------------------------------------|
D-12-12--12-12--12-12-11-11--11-11--11-11-10-10--10-10--10-10-9-9--9-9--9~12|
A-12-12--12-12--12-12-11-11--11-11--11-11-10-10--10-10--10-10-9-9--9-9--9~12|
D-12-12--12-12--12-12-11-11--11-11--11-11-10-10--10-10--10-10-9-9--9-9--9~12|

Verse 1 X2
e---------------------------------------------------------------|
B---------------------------------------------------------------|
G---------------------------------------------------------------|
D----2---7--8--9-9---2-2-14--2---7--8--9-9---2-2-13-------------|
A----2---7--8--9-9---2-2-14--2---7--8--9-9---2-2-13-------------|
D----2---7--8--9-9---2-2-14--2---7--8--9-9---2-2-13-------------|

Verse 1
e----------------------------------------------------------------|
B----------------------------------------------------------------|
G----------------------------------------------------------------|
D----2---7--8--9-9---2-2-12--2---7--8--9-9--2-2-11---------------|
A----2---7--8--9-9---2-2-12--2---7--8--9-9--2-2-11---------------|
D----2---7--8--9-9---2-2-12--2---7--8--9-9--2-2-11---------------|

Verse 2 power chords:play as many times as required these are just the chords
e-------------------------|
B-------------------------|
G-------------------------|
D--5-----12-----2----10---|
A--5-----12-----2----10---|
D--5-----12-----2----10---|


This is for someone who just wants the fingerings, and has already heard the song, feel 
to copy and add the things I left out, but this is as close as it gets!
            
Hard to play? Try these video lessons and learn fast. | Correct




comments powered by Disqus
↑ Back to top | Tablatures and chords are parodies/interpretations of the original songs. You may use it for private study, scholarship, research or language learning purposes only