» » »

Tantric, Live Your Life Bass tabs (ver.1)

Artists:  A B C D E F G H I J K L M N O P Q R S T U V W X Y Z # 

Live Your Life Bass tabs (ver.1)

Tantric Tabs
 Rating:
4/5 (4 votes)
Live Your Life lessons Tabs too difficult? Try these video lessons and learn fast
1
                R= Rest 1 whole beat
:=Play short/staccato
h=Hammer on
p= Pull off

Intro/Verse

Gb ------------------------------|
Db --------------------7-5-------|
Ab 7-777-10-9----5-555-----7-----| 10x
Db -----------10-----------------|
(Feel free to add variations as you want)


Hook

Gb ---R-R-R-R----------|
Db ---R-R-R-R----------|
Ab ---R-R-R-R----------|
Db 2:-R-R-R-R-0:-0:-0:-|

Verse 3x


Chorus

Gb ----------------------------------------------------------------|
Db ----------------------------------------------------------------|
Ab ----------------0-0-0-0-3-3-3h5---------------------------------| 2x
Db 2-2-2-2-5-5-5-5-----------------2-2-2-2-5-5-5-5-3-3-3-3-3-3-3-3-|

On the 2nd time, play Db-3 only twice. Just listen, you'll get it.

Verse 10x
Hook
Verse 3x
Chorus 2x


Breakdown

Gb --------------------------    ---------|
Db --------------------------    ---------|
Ab -------------------------- 3x ---------|
Db 2-0-2-7-5:-8-7:-7-5-2-0-2-    -0-3-3-3-|

Verse until end of song.
            
Submit corrections

comments powered by Disqus
↑ Back to top | Tantric Bass for Live Your Life. Lyrics for acoustic guitar and electric guitar. 1 Tablatures and chords are parodies/interpretations of the original songs. You may use it for private study, scholarship, research or language learning purposes only