>
 >
Just Once 1

Just Once 1 Guitar Tabs

Tantric - Just Once 1 chords, tabs, tablatures, lyrics

Guitar lessons | Add/correct | Request | Top 50 tabs Artists:  A B C D E F G H I J K L M N O P Q R S T U V W X Y Z 0-9

Just Once 1 Guitar Tabs – Tantric

CD, Sheet music, Poster

Do you like Just Once 1? Share with your friends now
TabsTabs v2
----------------------------------------------------------------------------
                             JUST ONCE - Tantric
----------------------------------------------------------------------------

Tuning: 1/2 step (Eb, Ab, Db, F#, C, Eb)


Intro Riff

Guitar I:
e|-------3p0----------------0--7--------0----------------------------------|
B|-------3p0-------0h1-3-----------0--1-------0---1------------------------|
G|---------------------------------------------------------0---------------|
D|-----------------------------------------------------2-------------------|
A|---0---------0-----------------------------------------------------------|
E|-------------------------------------------------------------------------|

e|-------------------------------------------------------------------------|
B|-------------------------------------------------------------------------|
G|-----------0---------------0-----------------------0-------2p0--------0--|
D|------0h2------------0h2------------2---------0h2---------------0--------|
A|-------------------------------------------------------------------------|
E|--1--------------1--------------1---------3-------------3----------3-----|


Guitar I continues and Guitar II comes in at 15 seconds:
e|---------------15--------12----------------------------------------------|
B|----------13---------13--------13\(12)---12h13p12------------------------|
G|---12/14--------------------------------------------12-------------------|
D|---------------------------------------------------------14--/17---------|
A|-------------------------------------------------------------------------|
E|-------------------------------------------------------------------------|

play that lead 3 times and then play it like this a fourth time:
e|---------------15--------12----------------------------------------------|
B|----------13---------13--------13\(12)---12h13p12------------------------|
G|---12/14--------------------------------------------12-------------------|
D|---------------------------------------------------------14\2------------|
A|-------------------------------------------------------------------------|
E|-------------------------------------------------------------------------|

Then the verse starts, just play the intro riff on its own and after 44 seconds play the 
ontop again until 0:58 when you change to distortion and play this:

Chorus: one or two guitars
e|-------------------------------------------------------------------------|
B|-------------------------------------------------------------------------|
G|-------------------------------------------------------------------------|
D|-------------------------------------------------------------------------|
A|---7------5------/10-------7------5------7-----3-x-3---5-x-5---2-2-2-2---|
E|---5------3------/8--------5------3------5-----1-x-1---3-x-3---0-0-0-0---|
                                                                 P.M....
which is played 4 times

then it goes back to the intro riff and lead untsil 1:41 where its just the intro while 
second verse goes, and the the lead comes in at 1:57. Play this until 2:10 when you play 
above chorus once again.

After that chorus play the solo which is played over the intro riff and goes something 
this:
e|-------------------------------------------------------------------------|
B|-------------------------------------------------13---------15--------13-|
G|---5p4-5p4-5p4-5p4-5p4-5p4-5p4--/9-9-9-12-12-12------12-12------12-12----|
D|-------------------------------------------------------------------------|
A|-------------------------------------------------------------------------|
E|-------------------------------------------------------------------------|

e|----------------------------------------------15-15---------17~~~~~~-----|
B|-----------15---------13--------15---15^^^-----------15------------------|
G|----12-12------12-12------12-12------------------------------------------|
D|-------------------------------------------------------------------------|
A|-------------------------------------------------------------------------|
E|-------------------------------------------------------------------------|

This next bit with some Wah:
e|-------15^(17)-17-17-17-17----17p15---17p15----17p15----17p15----17p15---|
B|-----------------------------------17-------17-------17-------17------17-|
G|-------------------------------------------------------------------------|
D|-------------------------------------------------------------------------|
A|-------------------------------------------------------------------------|
E|-------------------------------------------------------------------------|

e|-----17p15---17p15---17p15---17p15---17p15----17p15----17p15----17p15----|
B|-17-------17------17-------17------17------17-------17-------17------17--|
G|-------------------------------------------------------------------------|
D|-------------------------------------------------------------------------|
A|-------------------------------------------------------------------------|
E|-------------------------------------------------------------------------|

e|-----20^(22)--20--20----17--17h20p17-------------------------------------|
B|--------------------------------------20---17----------------------------|
G|-----------------------------------------------19--17--------------------|
D|-------------------------------------------------------19--17---14--12---|
A|-------------------------------------------------------------------------|
E|-------------------------------------------------------------------------|

and then more wha which sounds something like this which im not sure of
e|-------------------------------------------------------------------------|
B|---1---------------------------------------------------------------------|
G|-------------------------------------------------------------------------|
D|-------------------------------------------------------------------------|
A|------------0--3---------------------------------------------------------|
E|-------0h3----------(0h3p0)-3---(0h3p0)/10-------------------------------|

Then the Chrous once more

and then the rhythm plays this
e|-------------------------------------------------------------------------|
B|-------------------------------------------------------------------------|
G|-------------------------------------------------------------------------|
D|----------5~~~------------2---------------------5~~~-----------2---------|
A|---0-0-0--------0-0-0-0---0---0-0-0-0--------------------------0---------|
E|-----------------------------------------3-3-3--------3-3-3-3----3-3-3-3-|
     P.M..        P.M....       P.M....    P.M..        P.M....    P.M....

e|-------------------------------------------------------------------------|
B|-------------------------------------------------------------------------|
G|-------------------------------------------------------------------------|
D|----------5~~~------------2---------------------5~~~-----------2---------|
A|---0-0-0--------0-0-0-0---0---0-0-0-0-----------3~~~-----------0---------|
E|-----------------------------------------3-3-3--------3-3-3-3----3-3-3-3-|
     P.M..        P.M....       P.M....    P.M..        P.M....    P.M....

over and over

and the lead plays this ontop
e|-------------------------------------------------------------------------|
B|-------------------------------------------------------------------------|
G|------------------12~~~-----------9~~~-----------------------------------|
D|----------10-------------10----------------10------9~~-----9h10p9--------|
A|---10h12------12-------------12----------------12---------------------10-|
E|-------------------------------------------------------------------12----|


and then it varies to this:
e|-------------------------------------------------------------------------|
B|-------------------------------------------------------------------------|
G|--------------------12h14-14-14-14-12-12-12-12-12h14-14-14-14-12--12h14--|
D|----------10-------------------------------------------------------------|
A|---1oh12------12---------------------------------------------------------|
E|-------------------------------------------------------------------------|

Finsih on:
e|-------------------------------------------------------------------------|
B|-------------------------------------------------------------------------|
G|-------------------------------------------------------------------------|
D|-----------------5~~~~~~~~~~~~~~~~~~~~~~~~~~~~~~\~~~~~~~~~~~~~-----------|
A|-------0-0-0-------------------------------------------------------------|
E|-------------------------------------------------------------------------|
         P.M..

Guitar II:
e|-------------------------------------------------------------------------|
B|-------------------------------------------------------------------------|
G|------------------12~~~~~~~~~~~~~~~~~~~~~~~~~~~~\p0~~~~~~~~~~~~~~--------|
D|----------10-------------------------------------------------------------|
A|---10h12------12---------------------------------------------------------|
E|-------------------------------------------------------------------------|

| ^  bend
| /  slide up
| \  slide down
| h  hammer-on
| p  pull-off
| ~  vibrato
| +  harmonic
| x  Mute note
============================================================================





Comments


Popular Tantric tabs & chords
Breakdown 2 Bass Tabs
Breakdown 4 Bass Tabs
Breakdown Chords
After We Go Tabs
All To Myself Tabs
Breakdown 4 Tabs
Down And Out 1 Tabs
Foresight Intro Tabs
I'll Stay Here 1 Tabs
Love Song Tabs


Song lyrics



↑ Back to top | Tablatures and chords are parodies/interpretations of the original songs. You may use it for private study, scholarship, research or language learning purposes only
© 2014 AZChords.com Contact us | Privacy policy | DMCA | Add/correct tabs | Request tabs | Top 50 tabs