>
 >
Breakdown 4

Breakdown 4 Bass Tabs

Tantric - Breakdown 4 chords, tabs, tablatures, lyrics

Guitar lessons | Add/correct | Request | Top 50 tabs Artists:  A B C D E F G H I J K L M N O P Q R S T U V W X Y Z 0-9

Breakdown 4 Bass Tabs – Tantric

CD, Sheet music, Poster

Do you like Breakdown 4? Share with your friends now
Bass TabsBass Tabs v2Bass Tabs v3Bass Tabs v4Bass Tabs v5ChordsTabsTabs v2Tabs v3Tabs v4
This song tuned low to high is C#F#BF 0r Db Eb B E

Verse 1
E -----------------|
B -----------------|
F#-----------------|
C#--7~~--3~~~--0~~~|

Chorus:(I know the breakdown...)
E --------------------------|
B --------------------------|
F#--2-2---------------------|
C#-------3-3-3--5-5-5-5-----|

Pt2 (You can find the reason...)
E ----------------|
B ----------------|
F#-----7/---------|
C#-7-7---3-3-3----|

Verse 2
E -----------------------------|
B -----------------------------|
F#--2~~~~----------------------|
C#--------3--0--7~~~--3~~---0~~|

Bridge: (When you find yourself...)
E --------------------------------|
B --------------------------------|
F#-22222222-----------------------|
C#----------3333333-5555555-------|

This is a modification of a previously submitted Tab to change the tuning to Standard C#





Comments


Popular Tantric tabs & chords
Astounded Bass Tabs
Breakdown 2 Bass Tabs
Breakdown 5 Bass Tabs
Live Your Life Bass Tabs
Hero Chords
Astounded 1 Tabs
Breakdown 1 Tabs
I'll Stay Here 1 Tabs
Mourning 4 Tabs
Revillusion Tabs


Song lyrics



↑ Back to top | Tablatures and chords are parodies/interpretations of the original songs. You may use it for private study, scholarship, research or language learning purposes only
© 2014 AZChords.com Contact us | Privacy policy | DMCA | Add/correct tabs | Request tabs | Top 50 tabs