» » »

Tankcsapda, Rohadt A Hely Tabs (ver.1)

Artists:  A B C D E F G H I J K L M N O P Q R S T U V W X Y Z # 

Rohadt A Hely Tabs (ver.1)

Tankcsapda Tabs
 Rating:
4/5 (4 votes)
Rohadt A Hely lessons Tabs too difficult? Try these video lessons and learn fast
1
                -----------------------
Tankcsapda
Rohadt a hely

Jönnek A Férgek
-----------------------

Intro:

---2-2-101010-2-2-101010-2-2-101010-7-x-x---------------------------------------------------------------------------------
---2-2-101010-2-2-101010-2-2-101010-7-x-x---------------------------------------------------------------------------------
---0-0--8-8-8-0-0--8-8-8-0-0--8-8-8-5-x-x---------------------------------------------------------------------------------

(4x)

Under The Pre-Solo:

---2--2-2--2-2--2-4-4--5--5-5--5-5--5-5-5---------------------------------------------------------------------------------
---2--2-2--2-2--2-4-4--5--5-5--5-5--5-5-5---------------------------------------------------------------------------------
---0--0-0--0-0--0-2-2--3--3-3--3-3--3-3-3---------------------------------------------------------------------------------

Pre-Solo:

--19-14-15-19-14-15-19-14-15-19-14-15-19-14-15-19-14-15-19-14-15-19-14-15-------------------------------------------------

---12~p10~~-----19-12-12-12-12~---12-12~---12~---12-5-7-10-5-7-10-5-7-10-7-9-12-15-14-10-11-10-7-3-0-3-3-2-0--------------

Verse:

---2-2-101010-2-2-101010-2-2-101010-7-x-x---------------------------------------------------------------------------------
---2-2-101010-2-2-101010-2-2-101010-7-x-x---------------------------------------------------------------------------------
---0-0--8-8-8-0-0--8-8-8-0-0--8-8-8-5-x-x---------------------------------------------------------------------------------

(7x)

Bridge:

---------------------------------5-5-5-5-5-5-5-5-5-5-5-5-5-5-5-5-5--------------------------------------------------------
---5-5-5-5-5-5-5-5-5-5-5-5-5-5-5-5-5-5-5-5-5-5-5-5-5-5-5-5-5-5-5-5--------------------------------------------------------
---5-5-5-5-5-5-5-5-5-5-5-5-5-5-5-3-3-3-3-3-3-3-3-3-3-3-3-3-3-3-3-3--------------------------------------------------------
---3-3-3-3-3-3-3-3-3-3-3-3-3-3-3------------------------------------------------------------------------------------------

Verse:

---2-2-101010-2-2-101010-2-2-101010-7-x-x---------------------------------------------------------------------------------
---2-2-101010-2-2-101010-2-2-101010-7-x-x---------------------------------------------------------------------------------
---0-0--8-8-8-0-0--8-8-8-0-0--8-8-8-5-x-x---------------------------------------------------------------------------------

(4x)

Bridge:

---------------------------------5-5-5-5-5-5------------------------------------------------------------------------------
---5-5-5-5-5-5-5-5-5-5-5-5-5-5-5-5-5-5-5-5-5-5----------------------------------------------------------------------------
---5-5-5-5-5-5-5-5-5-5-5-5-5-5-5-3-3-3-3-3-3-5----------------------------------------------------------------------------
---3-3-3-3-3-3-3-3-3-3-3-3-3-3-3-------------3----------------------------------------------------------------------------

Chorus:

---2-2-101010-2-2-101010-2-2-101010-7-5-5-5-------------------------------------------------------------------------------
---2-2-101010-2-2-101010-2-2-101010-7-5-5-5-------------------------------------------------------------------------------
---0-0--8-8-8-0-0--8-8-8-0-0--8-8-8-5-3-3-3-------------------------------------------------------------------------------

(4x)


Under The Solo:

----------3--------------------1------------------------------------------------------------------------------------------
----------3--------------------0------------------------------------------------------------------------------------------
----------0--------------------0------------------------------------------------------------------------------------------
----------0--------------------2------------------------------------------------------------------------------------------
----------2--------------------3------------------------------------------------------------------------------------------
----------3--------------------0------------------------------------------------------------------------------------------

Solo:

--19-14-15-19-14-15-19-14-15-19-14-15-19-14-15-19-14-15-19-14-15-19-14-15-19-14-15-19-14-15-19-14-15-19-14-15-19-14-15----

--19-14-15--5~~~~~--------------------------------------------------------------------------------------------------------
------------------------2---------------------3---5-------7--------------10-7-10-5-10-7-10-9-7-10-9-7-7-10-7-9------------

---------12~----------12-12-12-12-12-12p10~----------10--5-7-10-6~---5-10-7-5-10-7-5-10-7-5-10-7-5-10-7-5-3-0-3-0-3-10-5~-



---------------------------------5-5-5-5-5-5-5-5-5-5-5-5-5-5-5-5-5--------------------------------------------------------
---5-5-5-5-5-5-5-5-5-5-5-5-5-5-5-5-5-5-5-5-5-5-5-5-5-5-5-5-5-5-5-5--------------------------------------------------------
---5-5-5-5-5-5-5-5-5-5-5-5-5-5-5-3-3-3-3-3-3-3-3-3-3-3-3-3-3-3-3-3--------------------------------------------------------
---3-3-3-3-3-3-3-3-3-3-3-3-3-3-3------------------------------------------------------------------------------------------


Continue of Solo:


--14~~~~~-----14-14-14-14-14-14p12~----10p12p10p12~---------12-15-12~-----15-17-15~--17-24--22---24---22~-----------------

--3-5-5-3-5~--3-5-5-3-5p3-3-5-5-3-5-3-3-5-5-3-5-3-3-5-5-3-5-3-5~---3p5p3p5-3-0-3--5~p3p5--12-10-7-12-14-12-19~~~~~~~~~~---

Chorus:

---2-2-101010-2-2-101010-2-2-101010-7-5-5-5-------------------------------------------------------------------------------
---2-2-101010-2-2-101010-2-2-101010-7-5-5-5-------------------------------------------------------------------------------
---0-0--8-8-8-0-0--8-8-8-0-0--8-8-8-5-3-3-3-------------------------------------------------------------------------------

(10x)

End:

-------------------
-------------------
-------------------
--2----------------
--2----------------
--0----------------

Ezeknek a Solo-knak NAGGYON KIRÁLY hanglyuk van jól torzítva (de hallgasd meg a számot hozzá)...    Leírta: Szerepi Bálint
            
Submit corrections

comments powered by Disqus
↑ Back to top | Tankcsapda Tabs for Rohadt A Hely. Lyrics for acoustic guitar and electric guitar. 1 Tablatures and chords are parodies/interpretations of the original songs. You may use it for private study, scholarship, research or language learning purposes only