» » »

Tankcsapda, Mitol Legyen Jokedvem Tabs (ver.1)

Artists:  A B C D E F G H I J K L M N O P Q R S T U V W X Y Z # 

Mitol Legyen Jokedvem Tabs (ver.1)

Tankcsapda Tabs
Rating:
0/5 (0 votes)
Mitol Legyen Jokedvem lessons Tabs too difficult? Try these video lessons and learn fast
                ------------------------------
Tankcsapda
Mitől Legyen Jó Kedvem?

Punk & Roll
------------------------------

Intro:

--10-10-10-10-5-5-5-5-5-10-10-10-10------3-----5-------------------------------------------
--10-10-10-10-5-5-5-5-5-10-10-10-10------3-----5-------------------------------------------
---8-8-8-8-8--3-3-3-3-3--8-8-8-8-8-------1-----3-------------------------------------------

(2x)

Bridge:

---------------
---------------
---------------
----10---------
----10---------
-----8---------

Pre-Verse:

--10-10-10-10-5-5-5-5-5-10-10-10-10------3-----5-------------------------------------------
--10-10-10-10-5-5-5-5-5-10-10-10-10------3-----5-------------------------------------------
---8-8-8-8-8--3-3-3-3-3--8-8-8-8-8-------1-----3-------------------------------------------

(2x)

Verse:

--10-10-10-10-5-5-5-5-5-10-10-10-10-5-5-5-5-5-3-3-3-3-3-5-5-5-5-5-3-3-3-3-3-5-5-5-5-5------
--10-10-10-10-5-5-5-5-5-10-10-10-10-5-5-5-5-5-3-3-3-3-3-5-5-5-5-5-3-3-3-3-3-5-5-5-5-5------
---8-8-8-8-8--3-3-3-3-3--8-8-8-8-8--3-3-3-3-3-1-1-1-1-1-3-3-3-3-3-1-1-1-1-1-3-3-3-3-3------

(2x)

Chorus:

---7-7-7-7-7-2-2-2-2-2-3-3-3-3-3-5-5-5-5-5-------------------------------------------------
---7-7-7-7-7-2-2-2-2-2-3-3-3-3-3-5-5-5-5-5-------------------------------------------------
---5-5-5-5-5-0-0-0-0-0-1-1-1-1-1-3-3-3-3-3-------------------------------------------------

(4x)

Bridge:

---7-7-5-5-7--7-7-5-5-7--7-7-5-5-7---5--5--------------------------------------------------
---7-7-5-5-7--7-7-5-5-7--7-7-5-5-7---5--5--------------------------------------------------
---5-5-3-3-5--5-5-3-3-5--5-5-3-3-5---3--3--------------------------------------------------

(4x)

Bridge:

--10------5-----10------3---5-----10-10------5-5-----10-10--3---5--------------------------
--10------5-----10------3---5-----10-10------5-5-----10-10--3---5--------------------------
---8------3------8------1---3------8-8-------3-3------8-8---1---3--------------------------

Pre-Verse:

--10-10-10-10-5-5-5-5-5-10-10-10-10------3-----5-------------------------------------------
--10-10-10-10-5-5-5-5-5-10-10-10-10------3-----5-------------------------------------------
---8-8-8-8-8--3-3-3-3-3--8-8-8-8-8-------1-----3-------------------------------------------

(2x)

Verse:

--10-10-10-10-5-5-5-5-5-10-10-10-10-5-5-5-5-5-3-3-3-3-3-5-5-5-5-5-3-3-3-3-3-5-5-5-5-5------
--10-10-10-10-5-5-5-5-5-10-10-10-10-5-5-5-5-5-3-3-3-3-3-5-5-5-5-5-3-3-3-3-3-5-5-5-5-5------
---8-8-8-8-8--3-3-3-3-3--8-8-8-8-8--3-3-3-3-3-1-1-1-1-1-3-3-3-3-3-1-1-1-1-1-3-3-3-3-3------

(2x)

Chorus:

---7-7-7-7-7-2-2-2-2-2-3-3-3-3-3-5-5-5-5-5-------------------------------------------------
---7-7-7-7-7-2-2-2-2-2-3-3-3-3-3-5-5-5-5-5-------------------------------------------------
---5-5-5-5-5-0-0-0-0-0-1-1-1-1-1-3-3-3-3-3-------------------------------------------------

(4x)

Bridge:

----7-x-x-x-2-x-x-x-3-x-x-x-5-x-x-x--------------------------------------------------------
----7-x-x-x-2-x-x-x-3-x-x-x-5-x-x-x--------------------------------------------------------
----5-x-x-x-0-x-x-x-1-x-x-x-3-x-x-x--------------------------------------------------------

(4x)

Chorus:

---7-7-7-7-7-2-2-2-2-2-3-3-3-3-3-5-5-5-5-5-------------------------------------------------
---7-7-7-7-7-2-2-2-2-2-3-3-3-3-3-5-5-5-5-5-------------------------------------------------
---5-5-5-5-5-0-0-0-0-0-1-1-1-1-1-3-3-3-3-3-------------------------------------------------

(2x)

Chorus-UP:

----------9--4-4-4-4-4-5-5-5-5-5-7-7-7-7-7-------------------------------------------------
----------9--4-4-4-4-4-5-5-5-5-5-7-7-7-7-7-------------------------------------------------
----------7--2-2-2-2-2-3-3-3-3-3-5-5-5-5-5-------------------------------------------------

(2x)

Outro:

---9-9-7-7-9--9-9-7-7-9--9-9-7-7-9---7-7---9~----------------------------------------------
---9-9-7-7-9--9-9-7-7-9--9-9-7-7-9---7-7---9~----------------------------------------------
---7-7-5-5-7--7-7-5-5-7--7-7-5-5-7---5-5---7~----------------------------------------------

Ahhoz, hogy tényleg eltudd játszani hallgasd meg az eredeti zenét is...      Leírta: Szerepi Bálint
            
Submit corrections

comments powered by Disqus
↑ Back to top | Tankcsapda Tabs for Mitol Legyen Jokedvem. Lyrics for acoustic guitar and electric guitar. Tablatures and chords are parodies/interpretations of the original songs. You may use it for private study, scholarship, research or language learning purposes only