» » »

Tankcsapda, Mikor A Srac Tabs (ver.1)

Artists:  A B C D E F G H I J K L M N O P Q R S T U V W X Y Z # 

Mikor A Srac Tabs (ver.1)

Tankcsapda Tabs
 Rating:
4/5 (4 votes)
Mikor A Srac lessons Tabs too difficult? Try these video lessons and learn fast
1
                ----------------------------------------
Tankcsapda
Mikor A Srác

Tankológia, Az Ember Tervez
----------------------------------------


 |       |       |       |        |       |       |       |        
|--------------------------------|--------------------------------|
|--------------------------------|--------------------------------|
|-----0----0-----0-----0-4-0---0-|-----0----0-----0-----0-4-0---0-|
|---0----0-----0-----0-------0---|---0----0-----0-----0-------0---|
|--------------------------------|--------------------------------|
|-3-----5----1-----1-------------|-3-----5----1-----1-------------|

 |       |       |       |        |       |       |       |        
|--------------------------------|--------------------------------|
|--------------------------------|--------------------------------|
|-----0----0-----0-----0-4-0---0-|-----0----0-----0-----0-4-0---0-|
|---0----0-----0-----0-------0---|---0----0-----0-----0-------0---|
|--------------------------------|--------------------------------|
|-3-----5----1-----1-------------|-3-----5----1-----1-------------|

 |       |       |       |        |       |       |       |        
|--------------------------------|--------------------------------|
|--------------------------------|--------------------------------|
|--------------------------------|--------------------------------|
|-5/7-7-7-7\5\3--7---------------|-5/7-7-7-7\5\3--7---------------|
|-5/7-7-7-7\5\3--5---------------|-5/7-7-7-7\5\3--5---------------|
|-3/5-5-5-5\3\1--3---------------|-3/5-5-5-5\3\1--3---------------|

 |       |       |       |        |       |       |       |        
|--------------------------------|--------------------------------|
|--------------------------------|--------------------------------|
|--------------------------------|--------------------------------|
|-5/7-7-7-7\5\3--7---------------|-5/7-7-7-7\5\3--7---------------|
|-5/7-7-7-7\5\3--5---------------|-5/7-7-7-7\5\3--5---------------|
|-3/5-5-5-5\3\1--3---------------|-3/5-5-5-5\3\1--3---------------|

 |       |       |       |        |       |       |       |        
|--------------------------------|--------------------------------|
|--------------------------------|--------------------------------|
|--------------------------------|--------------------------------|
|-7----------7--x-x-x10-12-12-12-|-12---------12--------x-5----5--|
|-7----------7--x-x-x10-12-12-12-|-12---------12--------x-5----5--|
|-5----------5--x-x-x-8-10-10-10-|-10---------10--------x-3----3--|

 |       |       |       |        |       |       |       |        
|--------------------------------|--------------------------------|
|--------------------------------|--------------------------------|
|--------------------------------|--------------------------------|
|-7----7--7--7---7-----7--7--7---|-7----7--7--7---7-----7--7--7---|
|-7----7--7--7---7-----7--7--7---|-7----7--7--7---7-----7--7--7---|
|-5----5--5--5---5-----5--5--5---|-5----5--5--5---5-----5--5--5---|

 |       |       |       |        |       |       |       |        
|--------------------------------|--------------------------12~---|
|--------------------------------|----------------------10--------|
|--------------------------------|--------------------------------|
|-7----7--7--7---7-----7--7--7---|12----------12------------------|
|-7----7--7--7---7-----7--7--7---|12----------12------------------|
|-5----5--5--5---5-----5--5--5---|10----------10------------------|

 |       |       |       |        |       |       |       |        
|--------------------------------|--------------------------------|
|--------------------------------|--------------------------------|
|--------------------------------|--------------------------------|
|-7----7--7--7---7-----7--7--7---|-7----7--7--7---7-----7--7--7---|
|-7----7--7--7---7-----7--7--7---|-7----7--7--7---7-----7--7--7---|
|-5----5--5--5---5-----5--5--5---|-5----5--5--5---5-----5--5--5---|

 |       |       |       |        |       |       |       |        
|--------------------------------|--------------------------12~---|
|--------------------------------|-----------------------10-------|
|--------------------------------|--------------------------------|
|-7----7--7--7---7-----7--7--7---|12----------12------------------|
|-7----7--7--7---7-----7--7--7---|12----------12------------------|
|-5----5--5--5---5-----5--5--5---|10----------10------------------|

|--------------------------------|--------------------------12~---|
|--------------------------------|-----------------------10-------|
|--------------------------------|--------------------------------|
|-7----7--7--7---7-----7--7--7---|12----------12------------------|
|-7----7--7--7---7-----7--7--7---|12----------12------------------|
|-5----5--5--5---5-----5--5--5---|10----------10------------------|

 |       |       |       |        |       |       |       |        
|--------------------------------|--------------------------------|
|--------------------------------|--------------------------------|
|--------------------------------|--------------------------------|
|-3------------3--x-x-x-7---2--3-|-3------------3--x-x-x-7---2--3-|
|-3------------3--x-x-x-7---2--3-|-3------------3--x-x-x-7---2--3-|
|-1------------1--x-x-x-5---0--1-|-1------------1--x-x-x-5---0--1-|

 |       |       |       |        |       |       |       |        
|--------------------------------|--------------------------------|
|--------------------------------|--------------------------------|
|--------------------------------|--------------------------------|
|-3------------3--x-x-x-7---2--3-|-2------------2----2-2-2---2-2--|
|-3------------3--x-x-x-7---2--3-|-2------------2----2-2-2---2-2--|
|-1------------1--x-x-x-5---0--1-|-0------------0----0-0-0---0-0--|

 |       |       |       |        |       |       |       |        
|--------------------------------|--------------------------------|
|--------------------------------|--------------------------------|
|--------------------------------|--------------------------------|
|-7-----7------7--------7-----7--|-3---------3-3-12----12-12-12-12|
|-7-----7------7--------7-----7--|-3---------3-3-12----12-12-12-12|
|-5-----5------5--------5-----5--|-1---------1-1-10----10-10-10-10|

 |       |       |       |        |       |       |       |        
|--------------------------------|--------------------------------|
|--------------------------------|--------------------------------|
|--------------------------------|--------------------------------|
|-7-----7------7--------7-----7--|-3---------3-3-12----12-12-12-12|
|-7-----7------7--------7-----7--|-3---------3-3-12----12-12-12-12|
|-5-----5------5--------5-----5--|-1---------1-1-10----10-10-10-10|

 |       |       |       |        |       |       |       |        
|--------------------------------|--------------------------------|
|--------------------------------|--------------------------------|
|--------------------------------|--------------------------------|
|-7-----7------7--------7-----7--|-3---------3-3-12----12-12-12-12|
|-7-----7------7--------7-----7--|-3---------3-3-12----12-12-12-12|
|-5-----5------5--------5-----5--|-1---------1-1-10----10-10-10-10|

 |       |       |       |        |       |       |       |        
|--------------------------------|--------------------------------|
|--------------------------------|--------------------------------|
|--------------------------------|--------------------------------|
|-7-----7------7--------7-----7--|-3---------3-3-12----12-12-12-12|
|-7-----7------7--------7-----7--|-3---------3-3-12----12-12-12-12|
|-5-----5------5--------5-----5--|-1---------1-1-10----10-10-10-10|

 |       |       |       |        |       |       |       |        
|--------------------------------|--------------------------------|
|--------------------------------|--------------------------------|
|--------------------------------|--------------------------------|
|-5/7-7-7-7\5\3--7---------------|-5/7-7-7-7\5\3--7---------------|
|-5/7-7-7-7\5\3--5---------------|-5/7-7-7-7\5\3--5---------------|
|-3/5-5-5-5\3\1--3---------------|-3/5-5-5-5\3\1--3---------------|

 |       |       |       |        |       |       |       |        
|--------------------------------|--------------------------------|
|--------------------------------|--------------------------------|
|--------------------------------|--------------------------------|
|-5/7-7-7-7\5\3--7---------------|-5/7-7-7-7\5\3--7---------------|
|-5/7-7-7-7\5\3--5---------------|-5/7-7-7-7\5\3--5---------------|
|-3/5-5-5-5\3\1--3---------------|-3/5-5-5-5\3\1--3---------------|

 |       |       |       |        |       |       |       |        
|--------------------------------|--------------------------------|
|--------------------------------|--------------------------------|
|--------------------------------|--------------------------------|
|-7----7--7--7---7-----7--7--7---|-7----7--7--7---7-----7--7--7---|
|-7----7--7--7---7-----7--7--7---|-7----7--7--7---7-----7--7--7---|
|-5----5--5--5---5-----5--5--5---|-5----5--5--5---5-----5--5--5---|

 |       |       |       |        |       |       |       |        
|--------------------------------|--------------------------10~---|
|--------------------------------|-----------------------8--------|
|--------------------------------|--------------------------------|
|-7----7--7--7---7-----7--7--7---|10----------10------------------|
|-7----7--7--7---7-----7--7--7---|10----------10------------------|
|-5----5--5--5---5-----5--5--5---|-8-----------8------------------|

 |       |       |       |        |       |       |       |        
|--------------------------------|--------------------------------|
|--------------------------------|--------------------------------|
|--------------------------------|--------------------------------|
|-7----7--7--7---7-----7--7--7---|-7----7--7--7---7-----7--7--7---|
|-7----7--7--7---7-----7--7--7---|-7----7--7--7---7-----7--7--7---|
|-5----5--5--5---5-----5--5--5---|-5----5--5--5---5-----5--5--5---|

 |       |       |       |        |       |       |       |        
|--------------------------------|--------------------------12~---|
|--------------------------------|-----------------------10-------|
|--------------------------------|--------------------------------|
|-7----7--7--7---7-----7--7--7---|12----------12------------------|
|-7----7--7--7---7-----7--7--7---|12----------12------------------|
|-5----5--5--5---5-----5--5--5---|10----------10------------------|

|--------------------------------|--------------------------12~---|
|--------------------------------|-----------------------10-------|
|--------------------------------|--------------------------------|
|-7----7--7--7---7-----7--7--7---|12----------12------------------|
|-7----7--7--7---7-----7--7--7---|12----------12------------------|
|-5----5--5--5---5-----5--5--5---|10----------10------------------|

 |       |       |       |        |       |       |       |        
|--------------------------------|--------------------------------|
|--------------------------------|--------------------------------|
|--------------------------------|--------------------------------|
|-3------------3--x-x-x-7---2--3-|-3------------3--x-x-x-7---2--3-|
|-3------------3--x-x-x-7---2--3-|-3------------3--x-x-x-7---2--3-|
|-1------------1--x-x-x-5---0--1-|-1------------1--x-x-x-5---0--1-|

 |       |       |       |        |       |       |       |        
|--------------------------------|--------------------------------|
|--------------------------------|--------------------------------|
|--------------------------------|--------------------------------|
|-3------------3--x-x-x-7---2--3-|-2------------2----2-2-2---2-2--|
|-3------------3--x-x-x-7---2--3-|-2------------2----2-2-2---2-2--|
|-1------------1--x-x-x-5---0--1-|-0------------0----0-0-0---0-0--|

 |       |       |       |        |       |       |       |        
|--------------------------------|--------------------------------|
|--------------------------------|--------------------------------|
|--------------------------------|--------------------------------|
|-7-----7------7--------7-----7--|-3---------3-3-12----12-12-12-12|
|-7-----7------7--------7-----7--|-3---------3-3-12----12-12-12-12|
|-5-----5------5--------5-----5--|-1---------1-1-10----10-10-10-10|

 |       |       |       |        |       |       |       |        
|--------------------------------|--------------------------------|
|--------------------------------|--------------------------------|
|--------------------------------|--------------------------------|
|-7-----7------7--------7-----7--|-3---------3-3-12----12-12-12-12|
|-7-----7------7--------7-----7--|-3---------3-3-12----12-12-12-12|
|-5-----5------5--------5-----5--|-1---------1-1-10----10-10-10-10|

 |       |       |       |        |       |       |       |        
|--------------------------------|--------------------------------|
|--------------------------------|--------------------------------|
|--------------------------------|--------------------------------|
|-7-----7------7--------7-----7--|-3---------3-3-12----12-12-12-12|
|-7-----7------7--------7-----7--|-3---------3-3-12----12-12-12-12|
|-5-----5------5--------5-----5--|-1---------1-1-10----10-10-10-10|

 |       |       |       |        |       |       |       |        
|--------------------------------|--------------------------------|
|--------------------------------|--------------------------------|
|--------------------------------|--------------------------------|
|-7-----7------7--------7-----7--|-3---------3-3-12----12-12-12-12|
|-7-----7------7--------7-----7--|-3---------3-3-12----12-12-12-12|
|-5-----5------5--------5-----5--|-1---------1-1-10----10-10-10-10|

 |       |       |       |        |       |       |       |        
|--------------------------------|--------------------------------|
|--------------------------------|--------------------------------|
|-2---------2--------------------|-2------------------------------|
|--------------------------------|----------2~-2~-----------------|
|--------------------------------|------0-------------------------|
|--------------------------------|--------------------------------|

 |       |       |       |        |       |       |       |        
|--------------------------------|--------------------------------|
|--------------------------------|-----1~-1~------1~-1~---------3~|
|-2------------------------------|-----2--2-------2--2------------|
|-----------2~-2~--2--------2----|--------------------------------|
|-------0--------------0---------|-0----------0---------0--3--0---|
|------------------------------3-|--------------------------------|

 |       |       |       |        |       |       |       |        
|--------------------------------|-12-----10-12~-12~-10-12~-10-5--|
|--------1-----------------------|--------------------------------|
|-----------2---2~---------------|--------------------------------|
|--------------------------------|--------------------------------|
|--------------------------------|--------------------------------|
|--------------------------------|--------------------------------|

 |       |       |       |        |       |       |       |        
|7--8--10-10\5--10~----5---------|------------23-19-19-21-23-19-21|
|--------------------------------|--------------------------------|
|--------------------------------|--------------------------------|
|--------------------------------|--------------------------------|
|------------------------0-0-0-3-|3-0-5-0-5\0---------------------|
|--------------------------------|--------------------------------|

 |       |       |       |        |       |       |       |        
|23-19-21-23-19-21-23-19-15----12|12--10--8--7--10--7--8-7-10~----|
|--------------------------------|--------------------------------|
|--------------------------------|--------------------------------|
|--------------------------------|--------------------------------|
|--------------------------------|--------------------------------|
|--------------------------------|--------------------------------|

 |       |       |       |        |       |       |       |        
|--------------------------------|--------------------------------|
|--------------------------------|--------------------------------|
|--------------------------------|--------------------------------|
|-3------------3--x-x-x-7---2--3-|-3------------3--x-x-x-7---2--3-|
|-3------------3--x-x-x-7---2--3-|-3------------3--x-x-x-7---2--3-|
|-1------------1--x-x-x-5---0--1-|-1------------1--x-x-x-5---0--1-|

 |       |       |       |        |       |       |       |        
|--------------------------------|--------------------------------|
|--------------------------------|--------------------------------|
|--------------------------------|--------------------------------|
|-3------------3--x-x-x-7---2--3-|-2------------2----2-2-2---2-2--|
|-3------------3--x-x-x-7---2--3-|-2------------2----2-2-2---2-2--|
|-1------------1--x-x-x-5---0--1-|-0------------0----0-0-0---0-0--|

 |       |       |       |        |       |       |       |        
|--------------------------------|--------------------------------|
|--------------------------------|--------------------------------|
|--------------------------------|--------------------------------|
|-7-----7------7--------7-----7--|-3---------3-3-12----12-12-12-12|
|-7-----7------7--------7-----7--|-3---------3-3-12----12-12-12-12|
|-5-----5------5--------5-----5--|-1---------1-1-10----10-10-10-10|

 |       |       |       |        |       |       |       |        
|--------------------------------|--------------------------------|
|--------------------------------|--------------------------------|
|--------------------------------|--------------------------------|
|-7-----7------7--------7-----7--|-3---------3-3-12----12-12-12-12|
|-7-----7------7--------7-----7--|-3---------3-3-12----12-12-12-12|
|-5-----5------5--------5-----5--|-1---------1-1-10----10-10-10-10|

 |       |       |       |        |       |       |       |        
|--------------------------------|--------------------------------|
|--------------------------------|--------------------------------|
|--------------------------------|--------------------------------|
|-5------7-----------------------|--------------------------------|
|-5------7-----------------------|--------------------------------|
|-3------5-----------------------|--------------------------------|

Leírta: Szerepi Bálint     TELJESEN Jó! 100 %...
Olyan formában van direkt leírva, hogy tab-szerkesztőkkel is meg 
tudd nyitni... Sok Sikert... :)
            
Submit corrections

comments powered by Disqus
↑ Back to top | Tankcsapda Tabs for Mikor A Srac. Lyrics for acoustic guitar and electric guitar. 1 Tablatures and chords are parodies/interpretations of the original songs. You may use it for private study, scholarship, research or language learning purposes only