» » »

MenyorszáG Tourist Tabs (ver.1)

Artists:  A B C D E F G H I J K L M N O P Q R S T U V W X Y Z # 

MenyorszáG Tourist Tabs (ver.1)

Tankcsapda
Rating:
0/5 (0 votes)
Tabs too difficult? Try these video lessons and learn fast.
                ---------------------------------------
Tankcsapda
Kicsikét

Connector 567
---------------------------------------

Verse:

4-4-4--7-7--7-7-7-4-4-4--7-7--7-7-7--4-4-4--7-7--7-7-7--3-3-3-0-0--0--0-0------------------
4-4-4--7-7--7-7-7-4-4-4--7-7--7-7-7--4-4-4--7-7--7-7-7--3-3-3-0-0--0--0-0------------------

(3x)

--------------------------------------------------------
--------------------------------------------------------
--------------------------------------------------------
--------------------------------------------------------
4-4-4--7-7--7-7-7-4-4-4--7-7--7-7-7--4-4-4--7-7--7-7-7--
4-4-4--7-7--7-7-7-4-4-4--7-7--7-7-7--4-4-4--7-7--7-7-7--

Bridge:

-------------
-------------
-------------
10--------6--
-8--------4--
-------------

Chorus:

10-10-10---6-6---3-3-3---10-10-10---6-6---3-3-3---10-10-10---6-6---3-3-3-10-10-10-6˘----6--
10-10-10---6-6---3-3-3---10-10-10---6-6---3-3-3---10-10-10---6-6---3-3-3-10-10-10-6˘----6--
-8--8--8---4-4---1-1-1----8--8--8---4-4---1-1-1----8--8--8---4-4---1-1-1--8--8--8-4˘----4--

Verse:

4-4-4--7-7--7-7-7-4-4-4--7-7--7-7-7--4-4-4--7-7--7-7-7--3-3-3-0-0--0--0-0------------------
4-4-4--7-7--7-7-7-4-4-4--7-7--7-7-7--4-4-4--7-7--7-7-7--3-3-3-0-0--0--0-0------------------

(3x)

--------------------------------------------------------
--------------------------------------------------------
--------------------------------------------------------
--------------------------------------------------------
4-4-4--7-7--7-7-7-4-4-4--7-7--7-7-7--4-4-4--7-7--7-7-7--
4-4-4--7-7--7-7-7-4-4-4--7-7--7-7-7--4-4-4--7-7--7-7-7--

Bridge:

-------------
-------------
-------------
10--------6--
-8--------4--
-------------


Chorus:

10-10-10---6-6---3-3-3---10-10-10---6-6---3-3-3---10-10-10---6-6---3-3-3-10-10-10-6˘----6--
10-10-10---6-6---3-3-3---10-10-10---6-6---3-3-3---10-10-10---6-6---3-3-3-10-10-10-6˘----6--
-8--8--8---4-4---1-1-1----8--8--8---4-4---1-1-1----8--8--8---4-4---1-1-1--8--8--8-4˘----4--


Bridge:

----------------------------------------
----------------------------------------
----------------------------------------
--10---------9--8---7-------------------
-------------------------8-----9--------
----------------------------------------

--10---10-10-10---9---8-8-8----7--7-7-7----------------------------
---8----8--8--8---7---6-6-6----5--5-5-5----8---------9-9-9---------
-------------------------------------------6---------7-7-7---------

Chorus:

10-10-10---6-6---3-3-3---10-10-10---6-6---3-3-3---10-10-10---6-6---3-3-3-10-10-10-6˘----6--
10-10-10---6-6---3-3-3---10-10-10---6-6---3-3-3---10-10-10---6-6---3-3-3-10-10-10-6˘----6--
-8--8--8---4-4---1-1-1----8--8--8---4-4---1-1-1----8--8--8---4-4---1-1-1--8--8--8-4˘----4--


Outro:

-----------5--4--5------------------------4------------------------
-------3-----------------------------6---------4-------------------
------------------------------4------------------------------------
(3x)

----------------------------------------------3--------------------
-----------5--4--5---4--5---4---5---4---5--------------------------
-------3-----------------------------------------------------------
            
Tabs too difficult? Try these video lessons and learn fast.


comments powered by Disqus
↑ Back to top | Tablatures and chords are parodies/interpretations of the original songs. You may use it for private study, scholarship, research or language learning purposes only