>
 >
MennyorszáG Tourist

MennyorszáG Tourist Bass Tabs

Tankcsapda - MennyorszáG Tourist chords, tabs, tablatures, lyrics

Guitar lessons | Add/correct | Request | Top 50 tabs Artists:  A B C D E F G H I J K L M N O P Q R S T U V W X Y Z 0-9

MennyorszáG Tourist Bass Tabs – Tankcsapda

CD, Sheet music, Poster

Do you like MennyorszáG Tourist? Share with your friends now
Bass Tabs
-------------------------------------------------------------------------------
-------------------------------------------------------------------------------


Tuning: standard EADG

(Intro:)
G|---------------------------------------------------------------------------|
D|---------------------------------------------------------------------------|
A|---------------------------------------------------------------------------|
E|----------------------------------------------------------------------17\--|

Verse:
G|---------------------------------------------------------------------------|
D|---------------------------------------------------------------------------|
A|---------------------------------------------------------------------------|
E|-5--5----8--8----5--5----8--8----5--5----8--8----5--5----14\-8--8--8--17\--|

G|---------------------------------------------------------------------------|
D|---------------------------------------------------------------------------|
A|---------------------------------------------------------------------------|
E|-5--5---17\-8--8---17\-5--5---17\-8--8---17\-5--5---17\-8--8---17\-5--5----|

G|---------------------------------------------------------------------------|
D|---------------------------------------------------------------------------|
A|---------------------------------------------------------------------------|
E|-17\-8--8--8--8-8--8-8--8\--1--1--1--1--1--1--1--1--0--0--0--0--0--0--0--0-|

Pre-Chorus:
G|---------------------------------------------------------------------------|
D|---------------------------------------------------------------------------|
A|---------------3--3------------------------3--3----------------------------|
E|-5--5---1--1----------3--3---5--5---1--1----------3--3--3---3--------------|

G|---------------------------------------------------------------------------|
D|---------------------------------------------------------------------------|
A|------------------------------3--3--3--(x)---------------------------------|
E|-5--5--5--(x)--1--1-1--1-(xx)----------------3--3-3--3---------------------|

G|---------------------------------------------------------------------------|
D|---------------------------------------------------------------------------|
A|---------------------------------------------------------------------------|
E|1--1--1--1--1--1--1--1--0--0--0--0--0--0--0--0-----------------------------|

Bridge:
G|---------------------------------------------------------------------------|
D|---------------------------------------------------------------------------|
A|---------------------------------------------------------------------------|
E|-5--5----15-17--17-17--17\--5--5----15-17--17-17--17\----------------------|

G|---------------------------------------------------------------------------|
D|---------------------------------------------------------------------------|
A|---------------------------------------------------------------------------|
E|-5--5----15-17--17-17--17\--5--5---------15/17--15/17----------------------|

Verse:
G|---------------------------------------------------------------------------|
D|---------------------------------------------------------------------------|
A|--------15/17 \15---------15/17 \15---------15/17 \15----------15/17 \15---|
E|-5--5--------------8--8--------------5--5---------------8--8---------------|

G|---------------------------------------------------------------------------|
D|---------------------------------------------------------------------------|
A|--------15/17 \15---------15/17 \15---------15/17 \15----------------------|
E|-5--5--------------8--8--------------5--5-------------8--8--8--8-8--8-8--8-|

G|---------------------------------------------------------------------------|
D|---------------------------------------------------------------------------|
A|---------------------------------------------------------------------------|
E|1--1--1--1--1--1--1--1--0--0--0--0--0--0--0--0-----------------------------|

Pre-Chorus:
G|---------------------------------------------------------------------------|
D|---------------------------------------------------------------------------|
A|---------------3--3------------------------3--3----------------------------|
E|-5--5---1--1----------3--3---5--5---1--1----------3--3--3---3--------------|

G|---------------------------------------------------------------------------|
D|---------------------------------------------------------------------------|
A|------------------------------3--3--3--(x)---------------------------------|
E|-5--5--5--(x)--1--1-1--1-(xx)----------------3--3-3--3---------------------|

G|---------------------------------------------------------------------------|
D|---------------------------------------------------------------------------|
A|---------------------------------------------------------------------------|
E|1--1--1--1--1--1--1--1--0--0--0--0--0--0--0--0-----------------------------|

Chorus:
G|-------------------------------------------------------------------------|
D|--------------------------8--8--8--8-10----------------------------------|
A|------------8--8-8--8--8-------------------------------------------------|x3
E|-5--5--5--5------------------------------3--3----------------------------|

G|---------------------------------------------------------------------------|
D|--------------------------8--8--8--8-10--10-10--10----12-------------------|
A|------------8--8-8--8--8---------------------------------------------------|
E|-5--5--5--5----------------------------------------------------------------|

(Bridge without bass, then:)
G|---------------------------------------------------------------------------|
D|---------------------------------------------------------------------------|
A|---------------------------------------------------------------------------|
E|-3/15--1--1--1--1--1--1--1--3--3--3--3--3--3--3--3--3--3--3--3--3--3--3--3-|

Solo:
G|---------------------------------------------------------------------------|
D|---------------------------------------------------------------------------|
A|------------------------------3--3--3--(x)---------------------------------|
E|-5--5--5--(x)--1--1-1--1-(xx)----------------3---1--3--4-------------------|

G|---------------------------------------------------------------------------|
D|---------------------------------------------------------------------------|
A|------------------------------3--3--3--(x)---5--5-5--5---------------------|
E|-5--5--5--(x)--1--1-1--1-(xx)----------------------------------------------|

G|---------------------------------------------------------------------------|
D|---------------------------------------------------------------------------|
A|------------------------------3--3--3--(x)---------------------------------|
E|-5--5--5--(x)--1--1-1--1-(xx)----------------3--3-3--3---------------------|

G|---------------------------------------------------------------------------|
D|---------------------------------------------------------------------------|
A|---------------------------------------------------------------------------|
E|-1-(xx)-1-(xx)-1-(xx)-1-(xx)-3-(xx)-3-(xx)-3-(xx)-3-(xx)-------------------|

Pre-Chorus:
G|---------------------------------------------------------------------------|
D|---------------------------------------------------------------------------|
A|-------------------3--3--------------------------------3--3-12\------------|
E|-5--5-12\-1--1-12\------12\-3--3-12\-5--5-12\-1--1-12\----------3--3--3----|

G|---------------------------------------------------------------------------|
D|---------------------------------------------------------------------------|
A|------------------------------3--3--3--(x)---------------------------------|
E|-5--5--5--(x)--1--1-1--1-(xx)----------------3--3-3--3---------------------|

G|---------------------------------------------------------------------------|
D|---------------------------------------------------------------------------|
A|---------------------------------------------------------------------------|
E|1--1--1--1--1--1--1--1--0--0--0--0--0--0--0--0-----------------------------|

Chorus:
G|-------------------------------------------------------------------------|
D|--------------------------8--8--8--8-10----------------------------------|
A|------------8--8-8--8--8-------------------------------------------------|x2
E|-5--5--5--5------------------------------3--3----------------------------|

G|---------------------------------------------------------------------------|
D|---------------------------------------------------------------------------|
A|--------------------------3--3--3--3---------------------------------------|
E|-5--5--5--5-1--1-1--1--1-------------3--3--3-------------------------------|

G|---------------------------------------------------------------------------|
D|---------------------------------------------------------------------------|
A|------------8--8-8--8--8---------------------------------------------------|
E|-5--5--5--5---------------1--1--1--1--3----3-------------------------------|

(outro:)
G|-------------------------------------------------------------------------|
D|-------------------------------------------------------------------------|
A|-----------------------------3--3--(x)-----------------------------------|x4
E|-5--5--5-(x)-1--1-1--1-(xx)------------3--3--3---------------------------|

G|---------------------------------------------------------------------------|
D|---------------------------------------------------------------------------|
A|---------------------------------------------------------------------------|
E|-5\  ----------------------------------------------------------------------|

===============================================================================
Notes: 

If You have problems with this tab, write Me a mail what's wrong with it
instead of giving it a bad rating! It'd be better for everyone! Thx!


| /  slide up
| \  slide down
| h  hammer-on
| p  pull-off
| ~  vibrato
| +  harmonic
| x  Mute note
===============================================================================





Comments


Popular Tankcsapda tabs & chords
Kapd Be A Horgot Bass Tabs
Fold Es Eg Chords
A 3 Gracia Tabs
Akinek Ltsz Intro Tabs
Fordulj Fel Tabs
MenyorszáG Tourist Tabs
Rohadt A Hely Tabs
Tetovalj Ki Tabs
Tetovlj Ki Tabs
Rkk Tart Ukulele


Song lyrics



↑ Back to top | Tablatures and chords are parodies/interpretations of the original songs. You may use it for private study, scholarship, research or language learning purposes only
© 2014 AZChords.com Contact us | Privacy policy | DMCA | Add/correct tabs | Request tabs | Top 50 tabs