>
 >
Kapd Be A Horgot

Kapd Be A Horgot Guitar Tabs

Tankcsapda - Kapd Be A Horgot chords, tabs, tablatures, lyrics

Guitar lessons | Add/correct | Request | Top 50 tabs Artists:  A B C D E F G H I J K L M N O P Q R S T U V W X Y Z 0-9

Kapd Be A Horgot Guitar Tabs – Tankcsapda

CD, Sheet music, Poster

Do you like Kapd Be A Horgot? Share with your friends now
Bass TabsTabs
Tankcsapda - Kapd be a horgot
(tab by Razer)
 
Tuning : E A D G B E    Time Signature: 4/4

 |       |       |       |        |       |       |       |        
|----------------------------0---|--------------------------------|
|--------------------------0-----|--------------------------------|
|------------------------1-------|--------------------------------|
|--------------------2-----------|--------------------------------|
|----------------2---------------|--------------------------------|
|------------0-------------------|--------------------------------|

 |       |       |       |        |       |       |       |        
|--------------------------------|--------------------------------|
|--------------------------------|--------------------------------|
|--------------------------------|--------------------------------|
|--------------------------------|--------------------------------|
|7---9---9---7---9---9---7---9---|----2---2---2---2-------2-------|
|5---7---7---5---7---7---5---7---|----0---0---0---0-------0-------|

 |       |       |       |        |       |       |       |        
|--------------------------------|--------------------------------|
|--------------------------------|--------------------------------|
|--------------------------------|--------------------------------|
|--------------------------------|--------------------------------|
|7---9---9---7---9---9---7---9---|----2---2---2---2-------2-------|
|5---7---7---5---7---7---5---7---|----0---0---0---0-------0-------|

 |       |       |       |        |       |       |       |        
|--------------------------------|--------------------------------|
|--------------------------------|--------------------------------|
|--------------------------------|--------------------------------|
|--------------------------------|--------------------------------|
|7---9---9---7---9---9---7---9---|----2---2---2---2-------2-------|
|5---7---7---5---7---7---5---7---|----0---0---0---0-------0-------|

 |       |       |       |        |       |       |       |        
|--------------------------------|--------------------------------|
|--------------------------------|--------------------------------|
|--------------------------------|--------------------------------|
|------------------------7---9---|--------------------------------|
|7---9---9---7---9---9---5---7---|--------------------------------|
|5---7---7---5---7---7-----------|--------------------------------|

 |       |       |       |        |       |       |       |        
|--------------------------------|--------------------------------|
|--------------------------------|--------------------------------|
|--------------------------------|--------------------------------|
|4-------4---4---4---7-----------|--------------------------------|
|2-------2---2---2---5-------5---|----5---5---5---5---5---5---5---|
|----------------------------3---|----3---3---3---3---3---3---3---|

 |       |       |       |        |       |       |       |        
|--------------------------------|--------------------------------|
|--------------------------------|--------------------------------|
|--------------------------------|--------------------------------|
|4-------4---4---4---7-----------|--------------------------------|
|2-------2---2---2---5-------5---|----5---5---5---5---5---5---5---|
|----------------------------3---|----3---3---3---3---3---3---3---|

 |       |       |       |        |       |       |       |        
|--------------------------------|--------------------------------|
|--------------------------------|--------------------------------|
|--------------------------------|--------------------------------|
|4-------4---4---4---7-----------|--------------------------------|
|2-------2---2---2---5-------5---|----5---5---5---5---5---5---5---|
|----------------------------3---|----3---3---3---3---3---3---3---|

 |       |       |       |        |       |       |       |        
|--------------------------------|--------------------------------|
|--------------------------------|--------------------------------|
|--------------------------------|--------------------------------|
|4-------4---4---4---7-----------|--------------------------------|
|2-------2---2---2---5-------5---|----5---5---5---5---5---5---5---|
|----------------------------3---|----3---3---3---3---3---3---3---|

 |       |       |       |        |       |       |       |        
|--------------------------------|--------------------------------|
|--------------------------------|--------------------------------|
|--------------------------------|--------------------------------|
|4-------4---4---4---7-----------|--------------------------------|
|2-------2---2---2---5-------5---|----5---5---5---5---5---5---5---|
|----------------------------3---|----3---3---3---3---3---3---3---|

 |       |       |       |        |       |       |       |        
|--------------------------------|--------------------------------|
|--------------------------------|--------------------------------|
|--------------------------------|--------------------------------|
|4-------4---4---4---7-----------|--------------------------------|
|2-------2---2---2---5-------5---|----5---5---5---5---5---5---5---|
|----------------------------3---|----3---3---3---3---3---3---3---|

 |       |       |       |        |       |       |       |        
|--------------------------------|--------------------------------|
|--------------------------------|--------------------------------|
|--------------------------------|--------------------------------|
|4-------4---4---4---7-----------|--------------------------------|
|2-------2---2---2---5-------5---|----5---5---5---5---5---5---5---|
|----------------------------3---|----3---3---3---3---3---3---3---|

 |       |       |       |        |       |       |       |        
|--------------------------------|--------------------------------|
|--------------------------------|--------------------------------|
|--------------------------------|--------------------------------|
|4-------4---4---4---7-----------|--------------------------------|
|2-------2---2---2---5-------5---|----5---5---5---5---5---5---5---|
|----------------------------3---|----3---3---3---3---3---3---3---|

 |       |       |       |        |       |       |       |        
|--------------------------------|--------------------------------|
|--------------------------------|--------------------------------|
|--------------------------------|--------------------------------|
|4-------4---4---4---7-----------|--------------------------------|
|2-------2---2---2---5-------5---|----5---5---5---5---5---5---5---|
|----------------------------3---|----3---3---3---3---3---3---3---|

 |       |       |       |        |       |       |       |        
|--------------------------------|--------------------------------|
|--------------------------------|--------------------------------|
|--------------------------------|--------------------------------|
|4-------4---4---4---7-----------|--------------------------------|
|2-------2---2---2---5-------5---|----5---5---5---5---5---5---5---|
|----------------------------3---|----3---3---3---3---3---3---3---|

 |       |       |       |        |       |       |       |        
|--------------------------------|--------------------------------|
|--------------------------------|--------------------------------|
|--------------------------------|--------------------------------|
|4-------4---4---4---7-----------|--------------------------------|
|2-------2---2---2---5-------5---|----5---5---5---5---5---5---5---|
|----------------------------3---|----3---3---3---3---3---3---3---|

 |       |       |       |        |       |       |       |        
|--------------------------------|--------------------------------|
|--------------------------------|--------------------------------|
|--------------------------------|--------------------------------|
|4-------4---4---4---7-----------|--------------------------------|
|2-------2---2---2---5-------2---|----2---2---2---2---2---2---2---|
|----------------------------0---|----0---0---0---0---0---0---0---|

 |       |       |       |        |       |       |       |        
|--------------------------------|--------------------------------|
|--------------------------------|--------------------------------|
|--------------------------------|--------------------------------|
|--------------------------------|--------------------------------|
|5-------5---5---5---5---5---5---|7-------7---7---7---7---7---7---|
|3-------3---3---3---3---3---3---|5-------5---5---5---5---5---5---|

 |       |       |       |        |       |       |       |        
|--------------------------------|--------------------------------|
|--------------------------------|--------------------------------|
|--------------------------------|--------------------------------|
|--------------------------------|--------------------------------|
|7---9---9---7---9---9---7---9---|9---7---9---9---7---9---9---9---|
|5---7---7---5---7---7---5---7---|7---5---7---7---5---7---7---7---|

 |       |       |       |        |       |       |       |        
|--------------------------------|--------------------------------|
|--------------------------------|--------------------------------|
|--------------------------------|--------------------------------|
|--------------------------------|--------------------------------|
|2-------2---2---2---2---2---2---|5---5---5---5---5---5---5---5---|
|0-------0---0---0---0---0---0---|3---3---3---3---3---3---3---3---|

 |       |       |       |        |       |       |       |        
|--------------------------------|--------------------------------|
|--------------------------------|--------------------------------|
|--------------------------------|--------------------------------|
|--------------------------------|--------------------------------|
|4---4---4---4---4---4---4---4---|4---4---4---4---4---------------|
|2---2---2---2---2---2---2---2---|2---2---2---2---2---------------|

 |       |       |       |        |       |       |       |        
|--------------------------------|--------------------------------|
|--------------------------------|--------------------------------|
|--------------------------------|--------------------------------|
|--------------------------------|--------------------------------|
|7---9---9---7---9---9---7---9---|----2---2---2---2-------2-------|
|5---7---7---5---7---7---5---7---|----0---0---0---0-------0-------|

 |       |       |       |        |       |       |       |        
|--------------------------------|--------------------------------|
|--------------------------------|--------------------------------|
|--------------------------------|--------------------------------|
|--------------------------------|--------------------------------|
|7---9---9---7---9---9---7---9---|----2---2---2---2-------2-------|
|5---7---7---5---7---7---5---7---|----0---0---0---0-------0-------|

 |       |       |       |        |       |       |       |        
|--------------------------------|--------------------------------|
|--------------------------------|--------------------------------|
|--------------------------------|--------------------------------|
|--------------------------------|--------------------------------|
|7---9---9---7---9---9---7---9---|----2---2---2---2-------2-------|
|5---7---7---5---7---7---5---7---|----0---0---0---0-------0-------|

 |       |       |       |        |       |       |       |        
|--------------------------------|--------------------------------|
|--------------------------------|--------------------------------|
|--------------------------------|--------------------------------|
|------------------------7---9---|--------------------------------|
|7---9---9---7---9---9---5---7---|--------------------------------|
|5---7---7---5---7---7-----------|--------------------------------|

 |       |       |       |        |       |       |       |        
|--------------------------------|--------------------------------|
|--------------------------------|--------------------------------|
|--------------------------------|--------------------------------|
|4-------4---4---4---7-----------|--------------------------------|
|2-------2---2---2---5-------5---|----5---5---5---5---5---5---5---|
|----------------------------3---|----3---3---3---3---3---3---3---|

 |       |       |       |        |       |       |       |        
|--------------------------------|--------------------------------|
|--------------------------------|--------------------------------|
|--------------------------------|--------------------------------|
|4-------4---4---4---7-----------|--------------------------------|
|2-------2---2---2---5-------5---|----5---5---5---5---5---5---5---|
|----------------------------3---|----3---3---3---3---3---3---3---|

 |       |       |       |        |       |       |       |        
|--------------------------------|--------------------------------|
|--------------------------------|--------------------------------|
|--------------------------------|--------------------------------|
|4-------4---4---4---7-----------|--------------------------------|
|2-------2---2---2---5-------5---|----5---5---5---5---5---5---5---|
|----------------------------3---|----3---3---3---3---3---3---3---|

 |       |       |       |        |       |       |       |        
|--------------------------------|--------------------------------|
|--------------------------------|--------------------------------|
|--------------------------------|--------------------------------|
|4-------4---4---4---7-----------|--------------------------------|
|2-------2---2---2---5-------5---|----5---5---5---5---5---5---5---|
|----------------------------3---|----3---3---3---3---3---3---3---|

 |       |       |       |        |       |       |       |        
|--------------------------------|--------------------------------|
|--------------------------------|--------------------------------|
|--------------------------------|--------------------------------|
|4-------4---4---4---7-----------|--------------------------------|
|2-------2---2---2---5-------5---|----5---5---5---5---5---5---5---|
|----------------------------3---|----3---3---3---3---3---3---3---|

 |       |       |       |        |       |       |       |        
|--------------------------------|--------------------------------|
|--------------------------------|--------------------------------|
|--------------------------------|--------------------------------|
|4-------4---4---4---7-----------|--------------------------------|
|2-------2---2---2---5-------5---|----5---5---5---5---5---5---5---|
|----------------------------3---|----3---3---3---3---3---3---3---|

 |       |       |       |        |       |       |       |        
|--------------------------------|--------------------------------|
|--------------------------------|--------------------------------|
|--------------------------------|--------------------------------|
|4-------4---4---4---7-----------|--------------------------------|
|2-------2---2---2---5-------5---|----5---5---5---5---5---5---5---|
|----------------------------3---|----3---3---3---3---3---3---3---|

 |       |       |       |        |       |       |       |        
|--------------------------------|--------------------------------|
|--------------------------------|--------------------------------|
|--------------------------------|--------------------------------|
|4-------4---4---4---7-----------|--------------------------------|
|2-------2---2---2---5-------2---|----2---2---2---2---2---2---2---|
|----------------------------0---|----0---0---0---0---0---0---0---|

 |       |       |       |        |       |       |       |        
|--------------------------------|--------------------------------|
|--------------------------------|--------------------------------|
|--------------------------------|--------------------------------|
|--------------------------------|--------------------------------|
|5-------5---5---5---5---5---5---|7-------7---7---7---7---7---7---|
|3-------3---3---3---3---3---3---|5-------5---5---5---5---5---5---|

 |       |       |       |        |       |       |       |        
|--------------------------------|--------------------------------|
|--------------------------------|--------------------------------|
|--------------------------------|--------------------------------|
|--------------------------------|--------------------------------|
|7---9---9---7---9---9---7---9---|9---7---9---9---7---9---9---9---|
|5---7---7---5---7---7---5---7---|7---5---7---7---5---7---7---7---|

 |       |       |       |        |       |       |       |        
|--------------------------------|--------------------------------|
|--------------------------------|--------------------------------|
|--------------------------------|--------------------------------|
|--------------------------------|--------------------------------|
|2-------2---2---2---2---2---2---|5---5---5---5---5---5---5---5---|
|0-------0---0---0---0---0---0---|3---3---3---3---3---3---3---3---|

 |       |       |       |        |       |       |       |        
|--------------------------------|--------------------------------|
|--------------------------------|--------------------------------|
|--------------------------------|--------------------------------|
|--------------------------------|--------------------------------|
|4---4---4---4---4---4---4---4---|4---4---4---4---4---4---4---4---|
|2---2---2---2---2---2---2---2---|2---2---2---2---2---2---2---2---|

 |       |       |       |        |       |       |       |        
|--------------------------------|--------------------------------|
|--------------------------------|--------------------------------|
|--------------------------------|--------------------------------|
|--------------------------------|--------------------------------|
|7---9---9---7---9---9---7---9---|----2---2---2---2-------2-------|
|5---7---7---5---7---7---5---7---|----0---0---0---0-------0-------|

 |       |       |       |        |       |       |       |        
|--------------------------------|--------------------------------|
|--------------------------------|--------------------------------|
|--------------------------------|--------------------------------|
|--------------------------------|--------------------------------|
|7---9---9---7---9---9---7---9---|----2---2---2---2-------2-------|
|5---7---7---5---7---7---5---7---|----0---0---0---0-------0-------|

 |       |       |       |        |       |       |       |        
|--------------------------------|--------------------------------|
|--------------------------------|--------------------------------|
|--------------------------------|--------------------------------|
|--------------------------------|--------------------------------|
|7---9---9---7---9---9---7---9---|----2---2---2---2-------2-------|
|5---7---7---5---7---7---5---7---|----0---0---0---0-------0-------|

 |       |       |       |        |       |       |       |        
|--------------------------------|--------------------------------|
|--------------------------------|--------------------------------|
|--------------------------------|--------------------------------|
|------------------------7---9---|--------------------------------|
|7---9---9---7---9---9---5---7---|--------------------------------|
|5---7---7---5---7---7-----------|--------------------------------|

 |       |       |       |        |       |       |       |        
|--------------------------------|--------------------------------|
|--------------------------------|--------------------------------|
|4-----------------------X-------|--------------------------------|
|4-----------------------X---2---|----------------------------2---|
|2-----------------------X---2---|----------------------------2---|
|----------------------------0---|----------------------------0---|

 |       |       |       |        |       |       |       |        
|--------------------------------|--------------------------------|
|--------------------------------|--------------------------------|
|4-----------------------X-------|--------------------------------|
|4-----------------------X---2---|----------------------------2---|
|2-----------------------X---2---|----------------------------2---|
|----------------------------0---|----------------------------0---|

 |       |       |       |        |       |       |       |        
|--------------------------------|--------------------------------|
|--------------------------------|--------------------------------|
|4-----------------------X-------|--------------------------------|
|4-----------------------X---2---|----------------------------2---|
|2-----------------------X---2---|----------------------------2---|
|----------------------------0---|----------------------------0---|

 |       |       |       |        |       |       |       |        
|--------------------------------|--------------------------------|
|--------------------------------|--------------------------------|
|--------------------------------|--------------------------------|
|--------------------------------|--------------------------------|
|5---5---5---5---5---5---5---5---|7---7---7---7---7---7---7---7---|
|3---3---3---3---3---3---3---3---|5---5---5---5---5---5---5---5---|

 |       |       |       |        |       |       |       |        
|--------------------------------|--------------------------------|
|--------------------------------|--------------------------------|
|--------------------------------|--------------------------------|
|4---4---------------------------|--------------------------------|
|2---2-----------------------2---|----2---------------------------|
|----------------------------0---|----0---------------------------|

 |       |       |       |        |       |       |       |        
|--------------------------------|--------------------------------|
|--------------------------------|--------------------------------|
|--------------------------------|--------------------------------|
|4---4---------------------------|--------------------------------|
|2---2-----------------------2---|----2---------------------------|
|----------------------------0---|----0---------------------------|

 |       |       |       |        |       |       |       |        
|--------------------------------|--------------------------------|
|--------------------------------|--------------------------------|
|--------------------------------|--------------------------------|
|4---4---------------------------|--------------------------------|
|2---2-----------------------2---|----2---------------------------|
|----------------------------0---|----0---------------------------|

 |       |       |       |        |       |       |       |        
|--------------------------------|--------------------------------|
|--------------------------------|--------------------------------|
|--------------------------------|--------------------------------|
|4---4---------------------------|--------------------------------|
|2---2-----------------------2---|----2---------------------------|
|----------------------------0---|----0---------------------------|

 |       |       |       |        |       |       |       |        
|--------------------------------|--------------------------------|
|--------------------------------|--------------------------------|
|--------------------------------|--------------------------------|
|--------------------------------|--------------------------------|
|7---9---9---7---9---9---7---9---|----2---2---2---2-------2-------|
|5---7---7---5---7---7---5---7---|----0---0---0---0-------0-------|

 |       |       |       |        |       |       |       |        
|--------------------------------|--------------------------------|
|--------------------------------|--------------------------------|
|--------------------------------|--------------------------------|
|--------------------------------|--------------------------------|
|7---9---9---7---9---9---7---9---|----2---2---2---2-------2-------|
|5---7---7---5---7---7---5---7---|----0---0---0---0-------0-------|

 |       |       |       |        |       |       |       |        
|--------------------------------|--------------------------------|
|--------------------------------|--------------------------------|
|--------------------------------|--------------------------------|
|--------------------------------|--------------------------------|
|7---9---9---7---9---9---7---9---|----2---2---2---2-------2-------|
|5---7---7---5---7---7---5---7---|----0---0---0---0-------0-------|

 |       |       |       |        |       |       |       |        
|--------------------------------|--------------------------------|
|--------------------------------|--------------------------------|
|--------------------------------|--------------------------------|
|--------------------------------|--------------------------------|
|7---9---9---7---9---9---7---9---|----2---2---2---2---2---2---2---|
|5---7---7---5---7---7---5---7---|----0---0---0---0---0---0---0---|

 |       |       |       |        |       |       |       |        
|--------------------------------|--------------------------------|
|--------------------------------|--------------------------------|
|--------------------------------|--------------------------------|
|--------------------------------|--------------------------------|
|5-------5---5---5---5---5---5---|7---7---7---7---7---7---7---7---|
|3-------3---3---3---3---3---3---|5---5---5---5---5---5---5---5---|

 |       |       |       |        |       |       |       |        
|--------------------------------|--------------------------------|
|--------------------------------|--------------------------------|
|--------------------------------|--------------------------------|
|--------------------------------|--------------------------------|
|7---9---9---7---9---9---7---9---|9---7---9---9---7---9---9---9---|
|5---7---7---5---7---7---5---7---|7---5---7---7---5---7---7---7---|

 |       |       |       |        |       |       |       |        
|--------------------------------|--------------------------------|
|--------------------------------|--------------------------------|
|--------------------------------|--------------------------------|
|--------------------------------|--------------------------------|
|2-------2---2---2---2---2---2---|5---5---5---5---5---5---5---5---|
|0-------0---0---0---0---0---0---|3---3---3---3---3---3---3---3---|

 |       |       |       |        |       |       |       |        
|--------------------------------|--------------------------------|
|--------------------------------|--------------------------------|
|--------------------------------|--------------------------------|
|--------------------------------|--------------------------------|
|4---4---4---4---4---4---4---4---|4-------2-----------------------|
|2---2---2---2---2---2---2---2---|2-------0-----------------------|

 |       |       |       |        |       |       |       |        
|--------------------------------|--------------------------------|
|--------------------------------|--------------------------------|
|--------------------------------|--------------------------------|
|--------------------------------|--------------------------------|
|7---9-------7---9-------7---9---|----2-------2-------2-----------|
|5---7-------5---7-------5---7---|----0-------0-------0-----------|

 |       |       |       |        |       |       |       |        
|--------------------------------|--------------------------------|
|--------------------------------|--------------------------------|
|--------------------------------|--------------------------------|
|--------------------------------|--------------------------------|
|7---9-------7---9-------7---9---|----2-------2-------2-----------|
|5---7-------5---7-------5---7---|----0-------0-------0-----------|

 |       |       |       |        |       |       |       |        
|--------------------------------|--------------------------------|
|--------------------------------|--------------------------------|
|--------------------------------|--------------------------------|
|--------------------------------|--------------------------------|
|7---9-------7---9-------7---9---|----2-------2-------2-----------|
|5---7-------5---7-------5---7---|----0-------0-------0-----------|

 |       |       |       |        |       |       |       |        
|--------------------------------|--------------------------------|
|--------------------------------|--------------------------------|
|--------------------------------|--------------------------------|
|------------------------7---9---|--------------------------------|
|7---9-------7---9-------5---7---|--------------------------------|
|5---7-------5---7---------------|--------------------------------|

 |       |       |       |        |       |       |       |        
|--------------------------------|--------------------------------|
|--------------------------------|--------------------------------|
|--------------------------------|--------------------------------|
|--------------------------------|--------------------------------|
|7---9---9---7---9---9---7---9---|----2---2---2---2---2---2---2---|
|5---7---7---5---7---7---5---7---|----0---0---0---0---0---0---0---|

 |       |       |       |        |       |       |       |        
|--------------------------------|--------------------------------|
|--------------------------------|--------------------------------|
|--------------------------------|--------------------------------|
|--------------------------------|--------------------------------|
|7---9---9---7---9---9---7---9---|----2---2---2---2---2---2---2---|
|5---7---7---5---7---7---5---7---|----0---0---0---0---0---0---0---|

 |       |       |       |        |       |       |       |        
|--------------------------------|--------------------------------|
|--------------------------------|--------------------------------|
|--------------------------------|--------------------------------|
|--------------------------------|--------------------------------|
|7---9---9---7---9---9---7---9---|----2---2---2---2---2---2---2---|
|5---7---7---5---7---7---5---7---|----0---0---0---0---0---0---0---|

 |       |       |       |        |       |       |       |        
|--------------------------------|--------------------------------|
|--------------------------------|--------------------------------|
|--------------------------------|--------------------------------|
|------------------------7---9---|--------------------------------|
|7---9---9---7---9---9---5---7---|--------------------------------|
|5---7---7---5---7---7-----------|--------------------------------|

 |       |       |       |        |       |       |       |        
|--------------------------------|--------------------------------|
|--------------------------------|--------------------------------|
|--------------------------------|--------------------------------|
|--------------------------------|--------------------------------|
|7---9---9---7---9---9---7---9---|----2---2---2---2---2---2---2---|
|5---7---7---5---7---7---5---7---|----0---0---0---0---0---0---0---|

 |       |       |       |        |       |       |       |        
|--------------------------------|--------------------------------|
|--------------------------------|--------------------------------|
|--------------------------------|--------------------------------|
|--------------------------------|--------------------------------|
|7---9---9---7---9---9---7---9---|----2---2---2---2---2---2---2---|
|5---7---7---5---7---7---5---7---|----0---0---0---0---0---0---0---|

 |       |       |       |        |       |       |       |        
|--------------------------------|--------------------------------|
|--------------------------------|--------------------------------|
|--------------------------------|--------------------------------|
|--------------------------------|--------------------------------|
|7---9---9---7---9---9---7---9---|----2---2---2---2---2---2---2---|
|5---7---7---5---7---7---5---7---|----0---0---0---0---0---0---0---|

 |       |       |       |        |       |       |       |        
|--------------------------------|--------------------------------|
|--------------------------------|--------------------------------|
|--------------------------------|--------------------------------|
|------------------------7---9---|------------------------7---9---|
|7---9---9---7---9---9---5---7---|------------------------5---7---|
|5---7---7---5---7---7-----------|--------------------------------|

 |       |       |       |        |       |       |       |        
|--------------------------------|--------------------------------|
|--------------------------------|--------------------------------|
|--------------------------------|--------------------------------|
|------------------------7-------|----4---4-----------------------|
|------------------------5---7---|----2---2-----------------------|
|----------------------------5---|--------------------------------|





Comments


Popular Tankcsapda tabs & chords
Fordulj Fel Bass Tabs
Egyszeru Dal 1 Chords
Fold Es Eg Chords
ÍGy LettéL Tabs
A 3 Gracia Tabs
AgyarorszáG Tabs
Akapulk Tabs
MenyorszáG Tourist Tabs
Az Let A Legjobb M Reg Ukulele
Fold Es Eg Ukulele


Song lyrics



↑ Back to top | Tablatures and chords are parodies/interpretations of the original songs. You may use it for private study, scholarship, research or language learning purposes only
© 2014 AZChords.com Contact us | Privacy policy | DMCA | Add/correct tabs | Request tabs | Top 50 tabs