» » »

Tankcsapda, Gyurd Ossze A Lepedot Tabs (ver.1)

Artists:  A B C D E F G H I J K L M N O P Q R S T U V W X Y Z # 

Gyurd Ossze A Lepedot Tabs (ver.1)

Tankcsapda Tabs
 Rating:
4/5 (4 votes)
Gyurd Ossze A Lepedot lessons Tabs too difficult? Try these video lessons and learn fast
1
                ---------------------
Tankcsapda
Gyűrd Össze A Lepedőt

A Legjobb Méreg
---------------------


Intro:

--------------------------5----------------------------------------------------------------------------------------------
---0-------3------5------------------------------------------------------------------------------------------------------

(16x)

Bridge:

---------------------
---------------------
---2-----------------
---2-----------------
---0-----------------
---------------------

Pre-Verse:

---2-----2-----2-------5------7----7---7---------------------------------------------------------------------------------
---2-----2-----2-------5------7----7---7------5-------5------------------------------------------------------------------
---0-----0-----0-------3------5----5---5------5-------5------------------------------------------------------------------
----------------------------------------------3-------3------------------------------------------------------------------

(4x)

Verse:

---2--2--2--2--2--2--2--2--2--2--2--2--2--2--2--2--------------------------7--7--7--7--7--7--7--7------------------------
---0--0--0--0--0--0--0--0--0--0--0--0--0--0--0--0-5--5--5--5--5--5--5--5---5--5--5--5--5--5--5--5------------------------
--------------------------------------------------3--3--3--3--3--3--3--3-------------------------------------------------

(4x)

Pre-Chorus:

---3--3--3--3--5--5--5--5--5--3--3--3--3--5--5--5--5--5--3--3--3--3--5--5--5--5--5--3-3-3-3------------------------------
---1--1--1--1--3--3--3--3--3--1--1--1--1--3--3--3--3--3--1--1--1--1--3--3--3--3--3--1-1-1-1------------------------------

Chorus:

---2-----2-----2-------5------7----7---7---------------------------------------------------------------------------------
---2-----2-----2-------5------7----7---7------5-------5------------------------------------------------------------------
---0-----0-----0-------3------5----5---5------5-------5------------------------------------------------------------------
----------------------------------------------3-------3------------------------------------------------------------------

(4x)

Verse:

---2--2--2--2--2--2--2--2--2--2--2--2--2--2--2--2--------------------------7--7--7--7--7--7--7--7------------------------
---0--0--0--0--0--0--0--0--0--0--0--0--0--0--0--0-5--5--5--5--5--5--5--5---5--5--5--5--5--5--5--5------------------------
--------------------------------------------------3--3--3--3--3--3--3--3-------------------------------------------------

(4x)

Pre-Chorus:

---3--3--3--3--5--5--5--5--5--3--3--3--3--5--5--5--5--5--3--3--3--3--5--5--5--5--5--3-3-3-3------------------------------
---1--1--1--1--3--3--3--3--3--1--1--1--1--3--3--3--3--3--1--1--1--1--3--3--3--3--3--1-1-1-1------------------------------

Chorus:

---2-----2-----2-------5------7----7---7---------------------------------------------------------------------------------
---2-----2-----2-------5------7----7---7------5-------5------------------------------------------------------------------
---0-----0-----0-------3------5----5---5------5-------5------------------------------------------------------------------
----------------------------------------------3-------3------------------------------------------------------------------

(4x)

A Solo-t Nem Még Tuttam Leírni (merthogy elég torz) Később Fent Lesz Ez is :)
            
Submit corrections

comments powered by Disqus
↑ Back to top | Tankcsapda Tabs for Gyurd Ossze A Lepedot. Lyrics for acoustic guitar and electric guitar. 1 Tablatures and chords are parodies/interpretations of the original songs. You may use it for private study, scholarship, research or language learning purposes only