» » »

Tankcsapda, ÍGy LettéL Tabs (ver.1)

Artists:  A B C D E F G H I J K L M N O P Q R S T U V W X Y Z # 

ÍGy LettéL Tabs (ver.1)

Tankcsapda Tabs
 Rating:
4/5 (4 votes)
ÍGy LettéL lessons Tabs too difficult? Try these video lessons and learn fast
1
                --------------------
Tankcsapda
Így Lettél

Az Ember Tervez
--------------------


TablEdited by Szerepi Bálint
Tuning : E A D G B E 	Time Signature: 4/4

 |       |       |       |        |       |       |       |        
|--------------------------------|--------------------------------|
|--------------------------------|--------------------------------|
|--------------------------------|--------------------------------|
|--------------------------------|--------------------------------|
|--------------------------------|--------------------------------|
|0---4---3---2---0---4---3---2---|0---4---3---2---0---4---3---2---|

 |       |       |       |        |       |       |       |        
|--------------------------------|--------------------------------|
|--------------------------------|--------------------------------|
|--------------------------------|--------------------------------|
|--------------------------------|--------------------------------|
|--------------------------------|--------------------------------|
|0---4---3---2---0---4---3---2---|0---4---3---2---0---4---3---2---|

 |       |       |       |        |       |       |       |        
|--------------------------------|--------------------------------|
|--------------------------------|--------------------------------|
|--------------------------------|--------------------------------|
|--------------------------------|--------------------------------|
|--------------------------------|--------------------------------|
|0---4---3---2---0---4---3---2---|0---4---3---2---0---4---3---2---|

 |       |       |       |        |       |       |       |        
|--------------------------------|--------------------------------|
|--------------------------------|--------------------------------|
|--------------------------------|--------------------------------|
|--------------------------------|--------------------------------|
|--------------------------------|--------------------------------|
|0---4---3---2---0---4---3---2---|0---4---3---2---0---4---3---2---|

 |       |       |       |        |       |       |       |        
|--------------------------------|--------------------------------|
|--------------------------------|--------------------------------|
|2---2-2---2-2---7---7-5---5-7---|2---2-2---2-2---7---7-5---5-7---|
|2---2-2---2-2---7---7-5---5-7---|2---2-2---2-2---7---7-5---5-7---|
|0---0-0---0-0---5---5-3---3-5---|0---0-0---0-0---5---5-3---3-5---|
|--------------------------------|--------------------------------|

 |       |       |       |        |       |       |       |        
|--------------------------------|--------------------------------|
|--------------------------------|--------------------------------|
|2---2-2---2-2---7---7-5---5-7---|2---2-2---2-2---7---7-5---5-7---|
|2---2-2---2-2---7---7-5---5-7---|2---2-2---2-2---7---7-5---5-7---|
|0---0-0---0-0---5---5-3---3-5---|0---0-0---0-0---5---5-3---3-5---|
|--------------------------------|--------------------------------|

 |       |       |       |        |       |       |       |        
|--------------------------------|--------------------------------|
|--------------------------------|--------------------------------|
|2---2-2---2-2---7---7-5---5-7---|2---2-2---2-2---7---7-5---5-7---|
|2---2-2---2-2---7---7-5---5-7---|2---2-2---2-2---7---7-5---5-7---|
|0---0-0---0-0---5---5-3---3-5---|0---0-0---0-0---5---5-3---3-5---|
|--------------------------------|--------------------------------|

 |       |       |       |        |       |       |       |        
|--------------------------------|--------------------------------|
|--------------------------------|--------------------------------|
|2---2-2---2-2---7---7-5---5-7---|7---7-7---7-7---7---7-7---7-7---|
|2---2-2---2-2---7---7-5---5-7---|7---7-7---7-7---7---7-7---7-7---|
|0---0-0---0-0---5---5-3---3-5---|5---5-5---5-5---5---5-5---5-5---|
|--------------------------------|--------------------------------|

 |       |       |       |        |       |       |       |        
|--------------------------------|--------------------------------|
|--------------------------------|--------------------------------|
|2---2-2---2-2---7---7-5---5-7---|2---2-2---2-2---7---7-5---5-7---|
|2---2-2---2-2---7---7-5---5-7---|2---2-2---2-2---7---7-5---5-7---|
|0---0-0---0-0---5---5-3---3-5---|0---0-0---0-0---5---5-3---3-5---|
|--------------------------------|--------------------------------|

 |       |       |       |        |       |       |       |        
|--------------------------------|--------------------------------|
|--------------------------------|--------------------------------|
|2---2-2---2-2---7---7-5---5-7---|7---7-7---7-7---7---7-7---7-7---|
|2---2-2---2-2---7---7-5---5-7---|7---7-7---7-7---7---7-7---7-7---|
|0---0-0---0-0---5---5-3---3-5---|5---5-5---5-5---5---5-5---5-5---|
|--------------------------------|--------------------------------|

 |       |       |       |        |       |       |       |        
|--------------------------------|--------------------------------|
|--------------------------------|--------------------------------|
|--------------------------------|--------------------------------|
|3---3-3---3-3---3---3-3---3-3---|5---5-5---5-5---5---5-5---5-5---|
|3---3-3---3-3---3---3-3---3-3---|5---5-5---5-5---5---5-5---5-5---|
|1---1-1---1-1---1---1-1---1-1---|3---3-3---3-3---3---3-3---3-3---|

 |       |       |       |        |       |       |       |        
|--------------------------------|--------------------------------|
|--------------------------------|--------------------------------|
|2---2-2---2-2---7---7-5---5-7---|2---2-2---2-2---7---7-5---5-7---|
|2---2-2---2-2---7---7-5---5-7---|2---2-2---2-2---7---7-5---5-7---|
|0---0-0---0-0---5---5-3---3-5---|0---0-0---0-0---5---5-3---3-5---|
|--------------------------------|--------------------------------|

 |       |       |       |        |       |       |       |        
|--------------------------------|--------------------------------|
|--------------------------------|--------------------------------|
|--------------------------------|--------------------------------|
|3---3-3---3-3---3---3-3---3-3---|5---5-5---5-5---5---5-5---5-5---|
|3---3-3---3-3---3---3-3---3-3---|5---5-5---5-5---5---5-5---5-5---|
|1---1-1---1-1---1---1-1---1-1---|3---3-3---3-3---3---3-3---3-3---|

 |       |       |       |        |       |       |       |        
|--------------------------------|--------------------------------|
|--------------------------------|--------------------------------|
|2---2-2---2-2---7---7-5---5-7---|2---2-2---2-2---7---7-5---5-7---|
|2---2-2---2-2---7---7-5---5-7---|2---2-2---2-2---7---7-5---5-7---|
|0---0-0---0-0---5---5-3---3-5---|0---0-0---0-0---5---5-3---3-5---|
|--------------------------------|--------------------------------|

 |       |       |       |        |       |       |       |        
|--------------------------------|--------------------------------|
|--------------------------------|--------------------------------|
|--------------------------------|--------------------------------|
|--------------------------------|--------------------------------|
|--------------------------------|--------------------------------|
|0---4---3---2---0---4---3---2---|0---4---3---2---0---4---3---2---|

 |       |       |       |        |       |       |       |        
|--------------------------------|--------------------------------|
|--------------------------------|--------------------------------|
|--------------------------------|--------------------------------|
|--------------------------------|--------------------------------|
|--------------------------------|--------------------------------|
|0---4---3---2---0---4---3---2---|0---4---3---2---0---4---3---2---|

 |       |       |       |        |       |       |       |        
|--------------------------------|--------------------------------|
|--------------------------------|--------------------------------|
|--------------------------------|--------------------------------|
|--------------------------------|--------------------------------|
|--------------------------------|--------------------------------|
|0---4---3---2---0---4---3---2---|0---4---3---2---0---4---3---2---|

 |       |       |       |        |       |       |       |        
|--------------------------------|--------------------------------|
|--------------------------------|--------------------------------|
|--------------------------------|--------------------------------|
|--------------------------------|--------------------------------|
|--------------------------------|--------------------------------|
|0---4---3---2---0---4---3---2---|0---4---3---2---0---4---3---2---|

 |       |       |       |        |       |       |       |        
|--------------------------------|--------------------------------|
|--------------------------------|--------------------------------|
|2---2-2---2-2---7---7-5---5-7---|2---2-2---2-2---7---7-5---5-7---|
|2---2-2---2-2---7---7-5---5-7---|2---2-2---2-2---7---7-5---5-7---|
|0---0-0---0-0---5---5-3---3-5---|0---0-0---0-0---5---5-3---3-5---|
|--------------------------------|--------------------------------|

 |       |       |       |        |       |       |       |        
|--------------------------------|--------------------------------|
|--------------------------------|--------------------------------|
|2---2-2---2-2---7---7-5---5-7---|7---7-7---7-7---7---7-7---7-7---|
|2---2-2---2-2---7---7-5---5-7---|7---7-7---7-7---7---7-7---7-7---|
|0---0-0---0-0---5---5-3---3-5---|5---5-5---5-5---5---5-5---5-5---|
|--------------------------------|--------------------------------|

 |       |       |       |        |       |       |       |        
|--------------------------------|--------------------------------|
|--------------------------------|--------------------------------|
|2---2-2---2-2---7---7-5---5-7---|2---2-2---2-2---7---7-5---5-7---|
|2---2-2---2-2---7---7-5---5-7---|2---2-2---2-2---7---7-5---5-7---|
|0---0-0---0-0---5---5-3---3-5---|0---0-0---0-0---5---5-3---3-5---|
|--------------------------------|--------------------------------|

 |       |       |       |        |       |       |       |        
|--------------------------------|--------------------------------|
|--------------------------------|--------------------------------|
|2---2-2---2-2---7---7-5---5-7---|7---7-7---7-7---7---7-7---7-7---|
|2---2-2---2-2---7---7-5---5-7---|7---7-7---7-7---7---7-7---7-7---|
|0---0-0---0-0---5---5-3---3-5---|5---5-5---5-5---5---5-5---5-5---|
|--------------------------------|--------------------------------|

 |       |       |       |        |       |       |       |        
|--------------------------------|--------------------------------|
|--------------------------------|--------------------------------|
|--------------------------------|--------------------------------|
|3---3-3---3-3---3---3-3---3-3---|5---5-5---5-5---5---5-5---5-5---|
|3---3-3---3-3---3---3-3---3-3---|5---5-5---5-5---5---5-5---5-5---|
|1---1-1---1-1---1---1-1---1-1---|3---3-3---3-3---3---3-3---3-3---|

 |       |       |       |        |       |       |       |        
|--------------------------------|--------------------------------|
|--------------------------------|--------------------------------|
|2---2-2---2-2---7---7-5---5-7---|2---2-2---2-2---7---7-5---5-7---|
|2---2-2---2-2---7---7-5---5-7---|2---2-2---2-2---7---7-5---5-7---|
|0---0-0---0-0---5---5-3---3-5---|0---0-0---0-0---5---5-3---3-5---|
|--------------------------------|--------------------------------|

 |       |       |       |        |       |       |       |        
|--------------------------------|--------------------------------|
|--------------------------------|--------------------------------|
|--------------------------------|--------------------------------|
|3---3-3---3-3---3---3-3---3-3---|5---5-5---5-5---5---5-5---5-5---|
|3---3-3---3-3---3---3-3---3-3---|5---5-5---5-5---5---5-5---5-5---|
|1---1-1---1-1---1---1-1---1-1---|3---3-3---3-3---3---3-3---3-3---|

 |       |       |       |        |       |       |       |        
|--------------------------------|--------------------------------|
|--------------------------------|--------------------------------|
|2---2-2---2-2---7---7-5---5-7---|2---2-2---2-2---7---5---7-------|
|2---2-2---2-2---7---7-5---5-7---|2---2-2---2-2---7---5---7-------|
|0---0-0---0-0---5---5-3---3-5---|0---0-0---0-0---5---3---5-------|
|--------------------------------|--------------------------------|
            
Submit corrections

comments powered by Disqus
↑ Back to top | Tankcsapda Tabs for ÍGy LettéL. Lyrics for acoustic guitar and electric guitar. 1 Tablatures and chords are parodies/interpretations of the original songs. You may use it for private study, scholarship, research or language learning purposes only