» » »

Tankcsapda, A Rock & Roll Rugoja Tabs (ver.1)

Artists:  A B C D E F G H I J K L M N O P Q R S T U V W X Y Z # 

A Rock & Roll Rugoja Tabs (ver.1)

Tankcsapda Tabs
 Rating:
4/5 (4 votes)
A Rock & Roll Rugoja lessons Tabs too difficult? Try these video lessons and learn fast
                TablEdited by Szerepi Bálint--=[Tankcsapda - A Rock&Roll Rugója]=--
Tuning : E A D G B E 	Time Signature: 4/4

 |       |       |       |        |       |       |       |        
|--------------------------------|--------------------------------|
|--------------------------------|--------------------------------|
|--------------------------------|--------------------------------|
|--0------0----0---0------0----0-|--0-----0-----0----0-----0------|
|----2------2--------2------2----|----4-----4-----4----4------4---|
|0---------------3---------------|5-----(5)---(5)--(5)---(5)------|

 |       |       |       |        |       |       |       |        
|--------------------------------|--------------------------------|
|--------------------------------|--------------------------------|
|--------------------------------|--------------------------------|
|--0------0----0---0------0----0-|--0-----0-----0----0-----0------|
|----2------2--------2------2----|----4-----4-----4----4------4---|
|0---------------3---------------|5-----(5)---(5)--(5)---(5)------|
						           Mekkora

 |       |       |       |        |       |       |       |        
|--------------------------------|--------------------------------|
|--------------------------------|--------------------------------|
|--------------------------------|--------------------------------|
|--0------0----0---0------0----0-|--0-----0-----0----0-----0------|
|----2------2--------2------2----|----4-----4-----4----4------4---|
|0---------------3---------------|5-----(5)---(5)--(5)---(5)------|
Bálvány,      Előtte az álvány      Fogja A Mikorofonját,  Remeg a

 |       |       |       |        |       |       |       |        
|--------------------------------|--------------------------------|
|--------------------------------|--------------------------------|
|--------------------------------|--------------------------------|
|--0------0----0---0------0----0-|--0-----0-----0----0-----0------|
|----2------2--------2------2----|----4-----4-----4----4------4---|
|0---------------3---------------|5-----(5)---(5)--(5)---(5)------|
Drága,       Az alsónadrág a sarokba dobva rég...      Jó ez a lány

 |       |       |       |        |       |       |       |        
|--------------------------------|--------------------------------|
|--------------------------------|--------------------------------|
|--------------------------------|--------------------------------|
|--0------0----0---0------0----0-|--0-----0-----0----0-----0------|
|----2------2--------2------2----|----4-----4-----4----4------4---|
|0---------------3---------------|5-----(5)---(5)--(5)---(5)------|
	  Semmiben nincs hiány,Gyere a karjaiddal Fonj át! Meleg a
 |       |       |       |        |       |       |       |        
|--------------------------------|--------------------------------|
|--------------------------------|--------------------------------|
|--------------------------------|--------------------------------|
|--0------0----0---0------0----0-|0-------------------------------|
|----2------2--------2------2----|4-------------------------------|
|0---------------3---------------|5-------------------------------|
Nyála,Jó vagyok nála...     Pedig Nagyon korcs keverék... Nyitva az

 |       |       |       |        |       |       |       |        
|--------------------------------|--------------------------------|
|--------------------------------|--------------------------------|
|--------------------------------|--------------------------------|
|2---2---x-x-2---5---5---x-x-x-5-|7---7---x-x-7--10--10--12-12-12-|
|2---2---x-x-2---5---5---x-x-x-5-|7---7---x-x-7--10--10--12-12-12-|
|0---0---x-x-0---3---3---x-x-x-3-|5---5---x-x-5--8---8---10-10-10-|
Ajtó,           bennem a hajtómű a fordulatszámot elérte,   mondom

 |       |       |       |        |       |       |       |        
|--------------------------------|--------------------------------|
|--------------------------------|--------------------------------|
|--------------------------------|--------------------------------|
|2---2---x-x-2---5---5---x-x-x-5-|7---7---x-x-7--10--10--12-12-12-|
|2---2---x-x-2---5---5---x-x-x-5-|7---7---x-x-7--10--10--12-12-12-|
|0---0---x-x-0---3---3---x-x-x-3-|5---5---x-x-5--8---8---10-10-10-|
a helyet,     de most a múltkori helyett máshova menj el érte aztán

 |       |       |       |        |       |       |       |        
|--------------------------------|--------------------------------|
|--------------------------------|--------------------------------|
|--------------------------------|--------------------------------|
|2---2---x-x-2---5---5---x-x-x-5-|7---7---x-x-7--10--10--12-12-12-|
|2---2---x-x-2---5---5---x-x-x-5-|7---7---x-x-7--10--10--12-12-12-|
|0---0---x-x-0---3---3---x-x-x-3-|5---5---x-x-5--8---8---10-10-10-|
a cuccot hozd el,de rendesen oszdd el! a szemetet ne én szívjam én fogom a 

 |       |       |       |        |       |       |       |        
|--------------------------------|--------------------------------|
|--------------------------------|--------------------------------|
|--------------------------------|--------------------------------|
|2---2---x-x-2---5---5---x-x-x-5-|7---7---x-x-7--10--10--12-12-12-|
|2---2---x-x-2---5---5---x-x-x-5-|7---7---x-x-7--10--10--12-12-12-|
|0---0---x-x-0---3---3---x-x-x-3-|5---5---x-x-5--8---8---10-10-10-|
számat,       csak mondd a számot,ha kell máskor is hívjam,ne félj!

 |       |       |       |        |       |       |       |        
|--------------------------------|--------------------------------|
|--------------------------------|----5-----3-----5-----3-----5---|
|--------------------------------|--------------------------------|
|14--14--14--14---9---9---9---9--|7-------------------------------|
|14--14--14--14---9---9---9---9--|7-------------------------------|
|12--12--12--12---7---7---7---7--|5-------------------------------|
A torta meg lesz fűszerezve csak  legyen hozzá elég fű szerezve...

 |       |       |       |        |       |       |       |        
|--------------------------------|--------------------------------|
|--------------------------------|--------------------------------|
|--------------------------------|--------------------------------|
|14--14--14--14---9---9---9---9--|10--10--10--10-12---12---12---12|
|14--14--14--14---9---9---9---9--|10--10--10--10-12---12---12---12|
|12--12--12--12---7---7---7---7--|8---8---8---8--10---10---10---10|
Hiába    is      mondanék neked   mást...

 |       |       |       |        |       |       |       |        
|--------------------------------|--------------------------------|
|--------------------------------|--------------------------------|
|--------------------------------|--------------------------------|
|2---2---x-x-2---5---5---x-x-x-5-|7---7---x-x-7--10--10--12-12-12-|
|2---2---x-x-2---5---5---x-x-x-5-|7---7---x-x-7--10--10--12-12-12-|
|0---0---x-x-0---3---3---x-x-x-3-|5---5---x-x-5--8---8---10-10-10-|
Mekkora bálvány,előtte az állvány  fogja a mikorofonját... Remeg a

 |       |       |       |        |       |       |       |        
|--------------------------------|--------------------------------|
|--------------------------------|--------------------------------|
|--------------------------------|--------------------------------|
|2---2---x-x-2---5---5---x-x-x-5-|7---7---x-x-7--10--10--12-12-12-|
|2---2---x-x-2---5---5---x-x-x-5-|7---7---x-x-7--10--10--12-12-12-|
|0---0---x-x-0---3---3---x-x-x-3-|5---5---x-x-5--8---8---10-10-10-|
drága...       Az alsónadrág a sarokba dobva rég...

 |       |       |       |        |       |       |       |        
|--------------------------------|--------------------------------|
|--------------------------------|--------------------------------|
|--------------------------------|--------------------------------|
|2---2---x-x-2---5---5---x-x-x-5-|7---7---x-x-7--10--10--12-12-12-|
|2---2---x-x-2---5---5---x-x-x-5-|7---7---x-x-7--10--10--12-12-12-|
|0---0---x-x-0---3---3---x-x-x-3-|5---5---x-x-5--8---8---10-10-10-|
Nagyon léha,   valami lééé   ha   néha lecsúszik a torkán...    és

 |       |       |       |        |       |       |       |        
|--------------------------------|--------------------------------|
|--------------------------------|--------------------------------|
|--------------------------------|--------------------------------|
|2---2---x-x-2---5---5---x-x-x-5-|7---7---x-x-7--10--10--12-12-12-|
|2---2---x-x-2---5---5---x-x-x-5-|7---7---x-x-7--10--10--12-12-12-|
|0---0---x-x-0---3---3---x-x-x-3-|5---5---x-x-5--8---8---10-10-10-|
Úgy ragad magával,        mint a  legpusztítóbb orkán...

 |       |       |       |        |       |       |       |        
|--------------------------------|--------------------------------|
|--------------------------------|----5-----3-----5-----3-----5---|
|--------------------------------|--------------------------------|
|14--14--14--14---9---9---9---9--|7-------------------------------|
|14--14--14--14---9---9---9---9--|7-------------------------------|
|12--12--12--12---7---7---7---7--|5-------------------------------|
A torta meg lesz fűszerezve csak  legyen hozzá elég fű szerezve...

 |       |       |       |        |       |       |       |        
|--------------------------------|--------------------------------|
|--------------------------------|--------------------------------|
|--------------------------------|--------------------------------|
|14--14--14--14---9---9---9---9--|10--10--10--10-12---12---12---12|
|14--14--14--14---9---9---9---9--|10--10--10--10-12---12---12---12|
|12--12--12--12---7---7---7---7--|8---8---8---8--10---10---10---10|
Hiába    is      mondanék neked   mást...

 |       |       |       |        |       |       |       |        
|--------------------------------|--------------------------------|
|--------------------------------|--------------------------------|
|--------------------------------|--------------------------------|
|2---------------5---------------|7---------------10------12------|
|2---------------5---------------|7---------------10------12------|
|0---------------3---------------|5---------------8-------10------|
Hidd el,én      nem tehetek róla így rakott le az a nyomorult gólya

 |       |       |       |        |       |       |       |        
|--------------------------------|--------------------------------|
|--------------------------------|--------------------------------|
|--------------------------------|--------------------------------|
|2---------------5---------------|9---9---10--10--7---5---4---3---|
|2---------------5---------------|9---9---10--10--7---5---4---3---|
|0---------------3---------------|7---7---8---8---5---3---2---1---|
Hidd el,         nem tehetek róla,Szétfeszít belül a Rock&Roll ru-

 |       |       |       |        
|--------------------------------|
|--------------------------------|
|--------------------------------|
|2-------------------------------|
|2-------------------------------|
|0-------------------------------|
gójaaaaaaaaaa..... jaa!

 |       |       |       |        |       |       |       |        
|--0-0---0---3-0---0-------------|--------------------------------|
|3-----3---3-----3---3-0---------|--------------------------------|
|------------------------2-2-----|2\3---5\4---4\2-2---4-5----4-5~-|
|--------------------------------|--------------------------------|
|--------------------------------|--------------------------------|
|--------------------------------|--------------------------------|
							Jooou Jooo

 |       |       |       |        |       |       |       |        
|10-12-12-10-12-12-10-12-12-10-12|12-10-12-12-10-12-12-10-12-12-10|
|--------------------------------|--------------------------------|
|--------------------------------|--------------------------------|
|--------------------------------|--------------------------------|
|--------------------------------|--------------------------------|
|--------------------------------|--------------------------------|

 |       |       |       |        |       |       |       |        
|12-12-10-12-12-10-12-12-10-12-12|10-12-12-10-12-12-10-12-12-10-12|
|--------------------------------|--------------------------------|
|--------------------------------|--------------------------------|
|--------------------------------|--------------------------------|
|--------------------------------|--------------------------------|
|--------------------------------|--------------------------------|

 |       |       |       |        |       |       |       |        
|--------------------------------|--------------------------------|
|--------------------------------|--------------------------------|
|--------------------------------|--------------------------------|
|7-7-7-7-7-7-7-7-7-7-7-7-7-7-7-7-|7-7-7-7-7-7-7-7-7-7-7-7-7-7-7-7-|
|7-7-7-7-7-7-7-7-7-7-7-7-7-7-7-7-|7-7-7-7-7-7-7-7-7-7-7-7-7-7-7-7-|
|5-5-5-5-5-5-5-5-5-5-5-5-5-5-5-5-|5-5-5-5-5-5-5-5-5-5-5-5-5-5-5-5-|
--==Ez a rész alatt megy a " másik szóló " egészen ................

 |       |       |       |        |       |       |       |        
|--------------------------------|--------------------------------|
|--------------------------------|--------------------------------|
|--------------------------------|--------------------------------|
|10-10-10-10-10-10-10-10-10-10-10|12-12-12-12-12-12-12-12-12-12-12|
|10-10-10-10-10-10-10-10-10-10-10|12-12-12-12-12-12-12-12-12-12-12|
|8-8-8-8-8-8-8-8-8-8-8-8-8-8-8-8-|10-10-10-10-10-10-10-10-10-10-10|
--==.....................................................idáig==--

 |       |       |       |        |       |       |       |        
|--------------------------------|--------------------------------|
|--------------------------------|--------------------------------|
|--------------------------------|--------------------------------|
|2---------------5---------------|7---------------10------12------|
|2---------------5---------------|7---------------10------12------|
|0---------------3---------------|5---------------8-------10------|
Hidd el,én      nem tehetek róla így rakott le az a nyomorult gólya

 |       |       |       |        |       |       |       |        
|--------------------------------|--------------------------------|
|--------------------------------|--------------------------------|
|--------------------------------|--------------------------------|
|2---------------5---------------|7---------------10------12------|
|2---------------5---------------|7---------------10------12------|
|0---------------3---------------|5---------------8-------10------|
Hidd el,         nem tehetek róla,Szétfeszít a Rock & Roll rugóója

 |       |       |       |        |       |       |       |        
|--------------------------------|--------------------------------|
|--------------------------------|--------------------------------|
|--------------------------------|--------------------------------|
|2---------------5---------------|7---------------10------12------|
|2---------------5---------------|7---------------10------12------|
|0---------------3---------------|5---------------8-------10------|
Hidd el,én      nem tehetek róla így rakott le az a nyomorult gólya

 |       |       |       |        |       |       |       |        
|--------------------------------|--------------------------------|
|--------------------------------|--------------------------------|
|--------------------------------|--------------------------------|
|2---------------5---------------|9---9---10--10--7---5---4---3---|
|2---------------5---------------|9---9---10--10--7---5---4---3---|
|0---------------3---------------|7---7---8---8---5---3---2---1---|
Hidd el,         nem tehetek róla,Szétfeszít belül a Rock&Roll, 

 |       |       |       |        |       |       |       |        
|--------------------------------|--------------------------------|
|--------------------------------|--------------------------------|
|--------------------------------|--------------------------------|
|9---9---10--10--7---5---4---3---|2------2------------------------|
|9---9---10--10--7---5---4---3---|2------2------------------------|
|7---7---8---8---5---3---2---1---|0------0------------------------|
Szétfeszít belül a Rock & Roll      Rugóóójaaaa... jaaa... jaaa...
            
Submit corrections

comments powered by Disqus
↑ Back to top | Tankcsapda Tabs for A Rock & Roll Rugoja. Lyrics for acoustic guitar and electric guitar. Tablatures and chords are parodies/interpretations of the original songs. You may use it for private study, scholarship, research or language learning purposes only