>
 >
Shadow

Shadow Guitar Tabs

Tangent - Shadow chords, tabs, tablatures, lyrics

Guitar lessons | Add/correct | Request | Top 50 tabs Artists:  A B C D E F G H I J K L M N O P Q R S T U V W X Y Z 0-9

Shadow Guitar Tabs – Tangent

CD, Sheet music, Poster

Do you like Shadow? Share with your friends now
Tabs

| Tuning |

Six String Guitar Tunned To Drop-D

           Standard       To Play This Song  
6 string      E                   D
5 string      A                   A
4 string      D                   D 
3 string      G                   G
2 string      B                   B
1 string      E                   E

| Notation |

/     =     Slide Up
\     =     Slide Down
p.m.  =     Palm Mute
x     =     Dead Note
h     =     Hammer On
p     =     Pull Off
*     =     Harmonic
~     =     Let Ring


| Intro |
  [guitar 1]
E||-------------------------------------------||
B||-------------------------------------------||
G||-------------------------------------------||
D||----2-3-2----2-3-0----2-3------2h3p2p0-----||
A||--------------------------3-----------3p2--||
D||-00-------00-------00-------00-------------||
pm ..       ..       ..       ..

  [guitar 2]
E||--------------------------------------------||
B||--------------------------------------------||
G||--------------------------------------------||
D||-33-------22-------11-------00--------------||
A||-33-------22-------11-------00--------------||
D||-33-------22-------11-------00--------------||
pm ..       ..       ..       ..         

*You play this intro before the drums enter.
 Also, the guitars must be synchronized on
 the riff.

| Second Intro (With Drums)* |
 
  [guitar 1]
E||------------------------------------------||
B||------------------------------------------||
G||------------------------------------------||
D||----2-3-2----2-3-0----2-3-----------------||
A||--------------------------3-00000000------||
D||-00-------00-------00-------00000000------||
 pm ..       ..       ..       ........

  [guitar 2]
E||------------------------------------------||             
B||------------------------------------------||
G||------------------------------------------||
D||-33-------22-------11---------------------||
A||-33-------22-------11-------00000000------||
D||-33-------22-------11-------00000000------||

*You play this after you have played the
 first intro three times.


| Pre-Chorus |

  [guitars 1 & 2]
E||-------------------------------------------------||
B||-------------------------------------------------||
G||-------------------------------------------------||
D||----0----0----0----0----1----1----2h3-2h3p3------||
A||----0----0----0----0----1----1-2h3----------3p2--||
D||-00-0-00-0-00-0-00-0-11-1-11-1-------------------||

| Chorus |

  [guitars 1 & 2]
E||-------------------------------------------------||
B||-------------------------------------------------||
G||-3-33-3-33-3-33-3-33--9-99-9-99-14-1414-14-1414--||
D||-3-33-3-33-3-33-3-33--9-99-9-99-14-1414-14-1414--||
A||-1-11-1-11-1-11-1-11--7-77-7-77-12-1212-12-1212--||
D||-1-11-1-11-1-11-1-11--7-77-7-77-12-1212-12-1212--||

| Verse 1 |

  [guitar 1]
E||-------------------------------------------------||
B||-------------------------------------------------||
G||-------------------------------------------------||
D||----2X3X2X--5X3p2--------------------------------||
A||----------3X-----3p2-----------------------------||
D||-00----------------------------------------------||

*Guitar 1 plays this riff alone one time then
 guitar 1 and 2 play this riff.

  [guitars 1 & 2] 
E||-------------------------------------------------||
B||-------------------------------------------------||
G||-------------------------------------------------||
D||----203020--503p2--------------------------------||
A||----------30-----3p2-----------------------------||
D||-00----------------------------------------------||

*In this riff, where it says 203020 etc., it is telling
 you to play 2 0 3 0 2 0 etc. It does NOT say 20 30....
 those are zeros.

| Verse 2 |

  [guitars 1 & 2] 
E||-------------------------------------------------||
B||-------------------------------------------------||
G||-------------------------------------------------||
D||-0-0--3-2--00-0-2-1--0000-1-0-----2h3-2h3p0------||
A||-0-0--3-2--00-0-2-1--0000-1-0-2h3-----------3p2--||
D||-0-0--3-2--00-0-2-1--0000-1-0--------------------||


| Breakdown |

  [guitars 1 & 2}
E||-------------------------------------------------||
B||-------------------------------------------------||
G||-------------------------------------------------||
D||-------------------------------------------------||
A||-1-0-1-0-3-2-0-1-1-0-1-0-3-2-0-1-----------------||
D||-1-0-1-0-3-2-0-1-1-0-1-0-3-2-0-1-----------------||
 pm . . . . . . . . . . . .     . .                 


E||-------------------------------------------------||
B||-------------------------------------------------||
G||-------------------------------------------------||
D||-------3-2--------3-2--------3-2------------5*~--||
A||-00-0--3-2--0--0--3-2--0000--3-2--00000000-------||
D||-00-0--3-2--0--0--3-2--0000--3-2--00000000-------||
 pm .. .       .  .       ....       ........

*On the harmonic, let it fade out so you can almost 
 not hear, Then fade into outro.

| Outro |

 [guitars 1 & 2]  (x3)          (play after outro p1)
E||---------------------|----------------------------||
B||---------------------|----------------------------||
G||---------------------|----------------------------||
D||----203020--503p2----|----203020--33--00----------||
A||----------30-----3p2-|------------33--00----------||
D||-00------------------|-00---------33--00----------||
pm  ..                    ..





Comments


Popular Tangent tabs & chords
Fea Tabs
Inevidable Tabs
Interface Tabs
Killer Angels Tabs
Quadratics Tabs
Secret Song Tabs
Sioux Tabs
Swallowed Pride Tabs
Trippen Tabs
Why Tabs


Song lyrics



↑ Back to top | Tablatures and chords are parodies/interpretations of the original songs. You may use it for private study, scholarship, research or language learning purposes only
© 2014 AZChords.com Contact us | Privacy policy | DMCA | Add/correct tabs | Request tabs | Top 50 tabs