» » »

Secret Song Tabs (ver.1)

Artists:  A B C D E F G H I J K L M N O P Q R S T U V W X Y Z # 

Secret Song Tabs (ver.1)

Tangent
Rating:
0/5 (0 votes)

Hard to play? Try these video lessons and learn fast.
                tuning:DADGBE


E----------------------------------------------------------------------
B----------------------------------------------------------------------
G----------------------------------------------------------------------
D----------------------------------------------------------------------
A----------------------------------------------------------------------
D-14-0-00-000-000-0----------------------------------------------------
			[INTRO]

E----------------------------------------------------------------------
B----------------------------------------------------------------------
G----------------------------------------------------------------------
D-1-0-0-0-0------------------------------------------------------------
A-1-0-0-0-0------------------------------------------------------------
D-1-0-0-0-0------------------------------------------------------------
			[CHORUS]

ORDER:
intro-x4
chorus-play where played in song
            
Hard to play? Try these video lessons and learn fast. | Correct




comments powered by Disqus
↑ Back to top | Tablatures and chords are parodies/interpretations of the original songs. You may use it for private study, scholarship, research or language learning purposes only