» » »

Killer Angels Tabs (ver.1)

Artists:  A B C D E F G H I J K L M N O P Q R S T U V W X Y Z # 

Killer Angels Tabs (ver.1)

Tangent
Rating:
0/5 (0 votes)

Hard to play? Try these video lessons and learn fast.
                tuning:DADGBE


E----------------------------------------------------------------------
B----------------------------------------------------------------------
G----------------------------------------------------------------------
D----------------------------------------------------------------------
A----------------------------------------------------------------------
D-12h13-12h13-12h13-12h13-9~-------------------------------------------
				[intro]

E----------------------------------------------------------------------
B----------------------------------------------------------------------
G----------------------------------------------------------------------
D-12h13-12h13-12h13-12h13-9~-------------------------------------------
A-12h13-12h13-12h13-12h13-9~-------------------------------------------
D-12h13-12h13-12h13-12h13-9~-------------------------------------------
				[chorus]

E----------------------------------------------------------------------
B----------------------------------------------------------------------
G----------------------------------------------------------------------
D-9~---10~--9~-88-----8888---------------------------------------------
A-9~---10~--9~-88-----8888---------------------------------------------
D-9~---10~--9~-88-----8888---------------------------------------------
				[riff 1]

KEY:
h=hammer on
~=let ring

ORDER:
intro-x2
chorus-x4
intro-x4
riff 1-x4
chorus-x4
riff 1-x4
chorus-x4
            
Hard to play? Try these video lessons and learn fast. | Correct




comments powered by Disqus
↑ Back to top | Tablatures and chords are parodies/interpretations of the original songs. You may use it for private study, scholarship, research or language learning purposes only