» » »

Interface Tabs (ver.1)

Artists:  A B C D E F G H I J K L M N O P Q R S T U V W X Y Z # 

Interface Tabs (ver.1)

Tangent
Rating:
0/5 (0 votes)

Hard to play? Try these video lessons and learn fast.
                tuning:DADGBE


E----------------------------------------------------------------------
B----------------------------------------------------------------------
G----------------------------------------------------------------------
D---2--2-----2--2-----2--2-----2--2------------------------------------
A--3--3-----3--3-----3--3-----3--3-------------------------------------
D-4--------4--------0--------0-----------------------------------------
				[INTRO]

E----------------------------------------------------------------------
B----------------------------------------------------------------------
G----------------------------------------------------------------------
D-2--222-22-2-2--22---2--222-22-2-2------------------------------------
A-3--333-33-3-3--33---3--333-33-3-3------------------------------------
D-4--444-44-4-4--44---0--000-00-0-0------------------------------------
				[CHORUS]

ORDER:
intro-x4
chorus-x4(clean only)
intro-x4
chorus-x4(play with clean and distortion)
*pause*
intro-x4
            
Hard to play? Try these video lessons and learn fast. | Correct




comments powered by Disqus
↑ Back to top | Tablatures and chords are parodies/interpretations of the original songs. You may use it for private study, scholarship, research or language learning purposes only