» » »

Tangent, Inevidable Tabs (ver.1)

Artists:  A B C D E F G H I J K L M N O P Q R S T U V W X Y Z # 

Inevidable Tabs (ver.1)

Tangent Tabs
 Rating:
4/5 (4 votes)
Inevidable lessons Tabs too difficult? Try these video lessons and learn fast
                tuning:DADGBE
____________ 
key         |
h=hammer on |
p=pull off  |
~=let ring  | 
.=palm mute |
____________|



INTRO
E-------------------------------------------
B-------------------------------------------
G-------------------------------------------
D-0-333333333333333-0-555555555555-3h5p3p0--
A-0-333333333333333-0-555555555555-3h5p3p0--
D-0-333333333333333-0-555555555555-3h5p3p0--



VERSE           PRE-CHORUS
E-----------|--------------------------------------------
B-----------|--------------------------------------------
G-----------|--------------------------------------------
D-xx---xx---|-333-3-3333-3333-555-5-555---5*-------------
A-xx---xx---|-333-3-3333-3333-555-5-555-5*---------------
D-xx---xx---|-333-3-3333-3333-555-5-555------------------


CHORUS
E------------------------------------------------------------
B------------------------------------------------------------
G-------------------5-5-5------------------------------------
D-2-22-2--22--3-33--5-5-5------------------------------------
A-2-22-2--22--3-33--3-3-3------------------------------------
D-2-22-2--22--3-33--3-3-3------------------------------------

VERSE 2
E------------------------------------------------------------------
B------------------------------------------------------------------
G------------------------------------------------------------------
D------------------------------------------------------------------
A---------3h5p3p0---------3h5p3p0---------5h7p5p0---------5h7p5p0--
D-3-5-3-0---------3-5-3-0---------3-5-3-0---------3-5-3-0----------
  . . . .         . . . .         . . . .         . . . .                         

BREAKDOWN (part I)
E------------------------------------------------------------
B------------------------------------------------------------
G------------------------------------------------------------
D-----9--9--------9---9-9-------5--5---------5---5-5---------
A---7-----------7---7---------3------------3---3-------------
D-7----7--7-7-7----------7--3----3---3-3-3-------------------



BREAKDOWN (part II)
E------------------------------------------------------------
B------------------------------------------------------------
G-99999-99-99-9999--55555-55-55-5555-------------------------
D-99999-99-99-9999--55555-55-55-5555-------------------------
A-77777-77-77-7777--33333-33-33-3333-------------------------
D-77777-77-77-7777--33333-33-33-3333-------------------------




BREAKDOWN (part III)
E------------------------------------------------------------
B------------------------------------------------------------
G-99999-99-1212-12121212--55555-55-55-5555-------------------
D-99999-99-1212-12121212--55555-55-55-5555-------------------
A-77777-77-1010-10101010--33333-33-33-3333-------------------
D-77777-77-1010-10101010--33333-33-33-3333-------------------



ORDER
intro-x4
verse1-x2
pre-chorus-x4
chorus-x4
verse2-x2
pre-chorus-x4
chorus-x4
breakdown(p1)-x2
breakdown(p2)-x4
breakdown(p3)-x4
pre-chorus-x4
chorus-x8
            
Submit corrections

comments powered by Disqus
↑ Back to top | Tangent Tabs for Inevidable. Lyrics for acoustic guitar and electric guitar. Tablatures and chords are parodies/interpretations of the original songs. You may use it for private study, scholarship, research or language learning purposes only