» » »

Tamplin Ken, Get Out Of My Sun Bass tabs (ver.2)

Artists:  A B C D E F G H I J K L M N O P Q R S T U V W X Y Z # 

Get Out Of My Sun Bass tabs (ver.2)

Tamplin Ken Tabs
 Rating:
4/5 (4 votes)
Get Out Of My Sun lessons Tabs too difficult? Try these video lessons and learn fast
1
                Get Out of My Sun - Tamplin (Robert Kent)
                   ~~~~~~~~~~~~~~~~~~~~~~~~~~~~~~~~~~~~~~~~~
intro:
   1 + 2 + 3 + 4 +  1 + 2 + 3 + 4 +  1 + 2 + 3 + 4 +  1 + 2 + 3 + 4 +
G |----------------|----------------|----------------|----------------|
D |----------------|----------------|----------------|---------------.|
A |----------------|----------------|----------------|---------------.|
E |0-0-------------|0-0-------------|0-0-------------|0-0-------------|

   1 + 2 + 3 + 4 +  1 + 2 + 3 + 4 +  1 + 2 + 3 + 4 +  1 + 2 + 3 + 4 +
G |----------------|----------------|----------------|----------------|
D |----------------|----------------|----------------|---------------.|
A |5-5---5-5-------|4-4---4-4h5\4---|0---------------|---------------.|
E |----------------|----------------|----3---0---3-5-|--5-3-0-0-0-5-5-|

   1 + 2 + 3 + 4 +  1 + 2 + 3 + 4 +  1 + 2 + 3 + 4 +  1 + 2 + 3 + 4 +
G |----------------|----------------|----------------|----------------|
D |----------------|----------------|----------------|----------------|
A |5-5---5-5-------|4-4---4-4h5\4---|2---------------|----------------|
E |----------------|----------------|----------------|----------------|

verse:
   1 + 2 + 3 + 4 +  1 + 2 + 3 + 4 +  1 + 2 + 3 + 4 +  1 + 2 + 3 + 4 +
G |----------------|----------------|----------------|----------------|
D |----------------|----------------|----------------|---------------.|
A |----------------|----------------|----------------|5-------0------.|
E |0-0---------3-0-|0-0---------3-0-|0-0---------3-0-|----------------|

chorus:
   1 + 2 + 3 + 4 +  1 + 2 + 3 + 4 +  1 + 2 + 3 + 4 +  1 + 2 + 3 + 4 +
G |----------------|----------------|----------------|----------------|
D |----------------|----------------|----------------|---------------.|
A |0-0---0-0-------|5-5---5-4h5\4---|----------------|---------------.|
E |----------------|----------------|0---3---0---3-5-|--5-3-0-0-0-3-3-|

   1 + 2 + 3 + 4 +  1 + 2 + 3 + 4 +  1 + 2 + 3 + 4 +  1 + 2 + 3 + 4 +
G |----------------|----------------|----------------|----------------|
D |----------------|----------------|----------------|----------------|
A |0-0---0-0-------|5-5---5-4h5\4---|2---------------|--2-2-2-2-2-2-2-|
E |----------------|----------------|----------------|----------------|

verse:
   1 + 2 + 3 + 4 +  1 + 2 + 3 + 4 +  1 + 2 + 3 + 4 +  1 + 2 + 3 + 4 +
G |----------------|----------------|----------------|----------------|
D |----------------|----------------|----------------|---------------.|
A |----------------|----------------|----------------|5-------0------.|
E |0-0---------3-0-|0-0---------3-0-|0-0---------3-0-|----------------|

   1 + 2 + 3 + 4 +  1 + 2 + 3 + 4 +  1 + 2 + 3 + 4 +  1 + 2 + 3 + 4 +
G |----------------|----------------|----------------|----------------|
D |----------------|----------------|----------------|---------------.|
A |----------------|----------------|----------------|--------3------.|
E |3-3---------3---|3-3---------3---|3-3---------3---|1---------------|

lead:
   1 + 2 + 3 + 4 +  1 + 2 + 3 + 4 +  1 + 2 + 3 + 4 +  1 + 2 + 3 + 4 +
G |----------------|6---------------|----------------|8---------------|
D |--------------7-|------7---------|--------------9-|------9---------|
A |------------7---|----------------|------------9---|----------------|
E |5---------5-----|------------5--/|7---------7-----|------------7---|

   1 + 2 + 3 + 4 +  1 + 2 + 3 + 4 +  1 2 3 4  1 2 3 4  1 2 3 4  1 2 3 4
G |----------------|----------------|--------|--------|--------|--------|
D |----------------|----------------|--------|--------|--------|--------|
A |7-----6---------|----------------|--------|--------|--------|--------|
E |----------5-5---|---------------7|7\------|-------5|5\------|-------7|

   1 + 2 + 3 + 4 +  1 + 2 + 3 + 4 +  1 + 2 + 3 + 4 +  1 + 2 + 3 + 4 +
G |----------------|----------------|----------------|----------------|
D |----------------|----------------|----------------|7---7---7-------|
A |----------------|----------------|----------------|----------------|
E |7\--------------|--------------5-|5\------------5-|--5---5---5-5-6-|

   1 + 2 + 3 + 4 +  1 + 2 + 3 + 4 +  1 + 2 + 3 + 4 +  1 + 2 + 3 + 4 +
G |----------------|----------------|----------------|----------------|
D |----------------|----------------|----------------|----------------|
A |----------------|----------------|----------------|----------------|
E |7-7-7-7-7-7-7-7-|7-7-7-7-7-7-7-7-|7-7-7-7-7-7-7-7-|7-7-7-7-7-7-7-7-|

   1 + 2 + 3 + 4 +  1 + 2 + 3 + 4 +  1 + 2 + 3 + 4 +  1 + 2 + 3 + 4 +
G |----------------|----------------|----------------|----------------|
D |----------------|----------------|----------------|----------------|
A |----------------|----------------|----------------|----------------|
E |7-7-7-7-7-7-7-7-|7-7-7-7-7-7-7-7-|5-5-5-4-4-4-5-5-|5-4-4-4-5-5-4-4-|

solo:
   1 + 2 + 3 + 4 +  1 + 2 + 3 + 4 +  1 + 2 + 3 + 4 +  1 + 2 + 3 + 4 +
G |----------------|----------------|----------------|----------------|
D |----------------|----------------|----------------|----------------|
A |----------------|------0-----0---|----------------|--------0-------|
E |2-----2-0-2-----|----2-----2---0-|0-----5-0-0-----|------0-----4---|

   1 + 2 + 3 + 4 +  1 + 2 + 3 + 4 +  1 + 2 + 3 + 4 +  1 + 2 + 3 + 4 +
G |----------------|----------------|----------------|----------------|
D |----------------|----------------|----------------|------222-111---|
A |----------------|------0-----0---|--------------2-|--2-2-----------|
E |2-----2-0-2-----|----2-----2---0-|0-----0-0---0---|----------------|

   1 + 2 + 3 + 4 +  1 + 2 + 3 + 4 +  1 + 2 + 3 + 4 +  1 + 2 + 3 + 4 +
G |----------------|----------------|----------------|----------------|
D |----------------|----------------|----------------|----------------|
A |----------------|----0-----------|----------------|--------2---0---|
E |2---2---0-2---2-|--2-----2---2---|0---0-0-5-0-----|----------------|

   1 + 2 + 3 + 4 +  1 + 2 + 3 + 4 +  1 + 2 + 3 + 4 +  1 + 2 + 3 + 4 +
G |----------------|----------------|----------------|----------------|
D |----------------|----------------|----------------|--------2---1---|
A |----------------|----0-----------|--------------2-|--2-2-----------|
E |2---2---0-2---2-|--2-----2---2---|0---0-0-5-0-----|----------------|

   1 + 2 + 3 + 4 +  1 + 2 + 3 + 4 +  1 + 2 + 3 + 4 +  1 + 2 + 3 + 4 +
G |----------------|----------------|----------------|----------------|
D |----------------|----------------|3---2-----------|----------------|
A |3---2---------3-|--3-2-----------|----------------|--------3---2---|
E |--------3-3-----|------3-3-3-----|--------1-1---3-|--3-3-3---------|

   1 + 2 + 3 + 4 +  1 + 2 + 3 + 4 +  1 + 2 + 3 + 4 +  1 + 2 + 3 + 4 +
G |----------------|----------------|----------------|----------------|
D |----------------|----------------|3---2-----------|----------------|
A |3---2---------3-|--3-2-----------|----------------|--------3---2---|
E |--------3-3-----|------3-3-3-----|--------1-1---3-|--3-3-3---------|

   1 + 2 + 3 + 4 +  1 + 2 + 3 + 4 +  1 + 2 + 3 + 4 +  1 + 2 + 3 + 4 +
G |----------------|----------------|----------------|----------------|
D |----------------|----------------|----------------|----------------|
A |0-0-0-0-0-0-0-0-|0-0-0-0-0-0-0-0-|----------------|--5---5-----4---|
E |----------------|----------------|3-3-3-3-3-3-3-3-|3---------------|

   1 + 2 + 3 + 4 +  1 + 2 + 3 + 4 +  1 + 2 + 3 + 4 +  1 + 2 + 3 + 4 +
G |----------------|----------------|----------------|----------------|
D |----------------|----------------|----------------|----------------|
A |0-0-0-0-0-0-0-0-|0-0-0-0-0-0-0-0-|----------------|--5---5---5-5\--|
E |----------------|----------------|3-3-3-3-3-3-3-3-|3---------------|

            
Submit corrections

comments powered by Disqus
↑ Back to top | Tamplin Ken Bass for Get Out Of My Sun. Lyrics for acoustic guitar and electric guitar. 1 Tablatures and chords are parodies/interpretations of the original songs. You may use it for private study, scholarship, research or language learning purposes only