>
 >
Feed Me

Feed Me Bass Tabs

Tamplin Ken - Feed Me chords, tabs, tablatures, lyrics

Guitar lessons | Add/correct | Request | Top 50 tabs Artists:  A B C D E F G H I J K L M N O P Q R S T U V W X Y Z 0-9

Feed Me Bass Tabs – Tamplin Ken

CD, Sheet music, Poster

Do you like Feed Me? Share with your friends now
Bass TabsBass Tabs v2



      6              |
 |==========|        |
 |==========|        | 

  
G---------------------------------------------------------------|
D---------------------------------------------------------------|
A-(5)/7----5-----5--7--5----------------------------------------|
E-------------7-----------7--6--5--3--5--0--3---5-5-5-5---------|


G---------------------------------------------------------------|
D---------------------------------------------------------------|
A---------------------------------------------------------------|
E-0--3--5--6--5--3-3---5-5-5-5---0---3------3------3------------|


G---------------------------------------------------------------|
D---------------------------------------------------------------|
A-5---7-7-7-7---5--4-5-4--5---7-7-7-7---5-----------------------|
E------------------------5------------------5-5-----------------|




[A]

G---------------------------------------------------------------|
D---------------------------------------------------------------|
A-5---5-4--5-4-----------------5--------------------------------|
E---------------r4-5--r5-7--------5--7-7--r55--r44--r55--r77----|


G---------------------------------------------------------------|
D---------------------------------------------------------------|
A-5---------------------------------5--6-5--7-7-7-7--5--4-5-4---|
E-----5---7-7--r55--r44--r55--r77-----------------------------5-|


G---------------------------------------------------------------|
D---------------------------------------------------------------|
A-5--7-7-7-7---5------------5--7-7-7-7---5--4-5-4--5--7-7-7-7---|
E-----------------5-5---3-0-----------------------5-------------|


G---------------------------------------------------------------|
D---------------------------------------------------------------|
A-5-------------------------------------------------------------|
E----5--5--3-0-3-5-5-5-5----0-3-565--33--5-5-5-5--0---3---3---3-|


G-------------------------------------------------||
D------------------------------------------------o||  repeat back
A-5--7-7-7-7---5--4-5-4--5--7-7-7-7---5----------o||    to [A]
E-----------------------5----------------5-5------||


|    16    |
|==========|
|	   |

G---------------------------------------------------------------|
D---------------------------------------------------------------|
A-----------1--------1----------------------------1--------1----|
E-3----3-------1--3-----1-1-0-1-0-1-0-1-3----3-------1--3-------|


G---------------------------------------------------------------|
D---------------------------------------------------------------|
A---------------------------1--------1--------------------------|
E-1-1-0-1-0-1-0-1-3----3-------1--3-----1-1-0-1-0-1-0-1---------|


G---------------------------------------------------------------|
D------------------------3---2----------------------------------|
A---------1-1------3-3------------------1-1---------------------|
E-3-3---------1-1---------------3-3---------1-1-1-1-1-0-1-0-1-0-|


G---------------------------------------------------------------|
D-------------------3---2---------------------------------------|
A---------1-1---------------3-----------1-1---------------------|
E-3-3---------1-1-1-------------3-3---------1-1-1-1-1-0-1-0-1---|


G---------------------------------------------------------------|
D---------------------------------------------------------------|
A---------1-1------3--2----5--5--7-7-7-7--5--4-5-4---5--7-7-7-7-|
E-3-3---------1-1----------------------------------5------------|


G--------------------------------------------/9-7---9-8-7-------|
D-------------------------------------------------9-------9-8-7-|
A-5--------------5--7-7-7-7--5--4-5-4---5-7---------------------|
E-----5--5---3-0----------------------5-------------------------|


G---------------------------------------------------------------|
D-5-7-5---------------------------------------------------------|
A-------7-------------------------------------------------------|
E-----------3--5-5-5-5---0--3--5-6-5-33--5-5-5-5---0--30-30-30--|


G---------------------------------------------------------------|
D---------------------------------------------------------------|
A-5--7-7-7-7---5--4-5-4---5--7-7-7-7---5------------------------|
E-----------------------5-----------------5-5----5--77--5--77---|


G---------------------------------------------------------------|
D---------------------------------------------------------------|
A------------5--------------------------75-------------------87-|
E-5--77--5--7---5--77--5--77--5--77--5-------55-r5-r5-r5-r5-5---|


G-------------------------------------------------/14-12--------|
D--------------------------------------------------------14-----|
A----------------------5--7-7-7-7--5--4-5-4---5-7---------------|
E-55-r5-r5-r5-r5-5--30----------------------5-------------------|


G-14-12------------------------------------------/9-7----9-8-7--|
D-------14-14-12--------------------------------------9---------|
A----------------14---5--7-7-7-7--5--4-5-4---5-7----------------|
E------------------------------------------5--------------------|


G---------------------------------------------------------------|
D-9-8-7--5--7--5------------------------------------------------|
A---------------------------------------------------------------|
E-----------------3--5-5-5-5---0--3--5-6-5--33--5-5-5-5---------|


G---------------------------------------------------------------|
D---------------------------------------------------------------|
A--------------------5--7-7-7-7--5--4-5-4---5--7-7-7-7--5-------|
E-0---3----3----3-------------------------5-----------------5-5-|





Comments


Popular Tamplin Ken tabs & chords
Feed Me 1 Bass Tabs
Get Out Of My Sun Bass Tabs
Get Out Of My Sun 1 Bass Tabs


Song lyrics



↑ Back to top | Tablatures and chords are parodies/interpretations of the original songs. You may use it for private study, scholarship, research or language learning purposes only
© 2014 AZChords.com Contact us | Privacy policy | DMCA | Add/correct tabs | Request tabs | Top 50 tabs