» » »

So Into You Tabs (ver.1)

Artists:  A B C D E F G H I J K L M N O P Q R S T U V W X Y Z # 

So Into You Tabs (ver.1)

Tamia
Rating:
4/5 (10 votes)

Hard to play? Try these video lessons and learn fast.
                -------------------------------------------------------------------------------
                             So into you-Tamia
-------------------------------------------------------------------------------

Tuning:Standard
            Asus(on D)                   F#m 7sus
e|---------0---------------0------|-------0-----------0----------------------|
B|--------------------------------|------0-----------------------------------|
G|----------------2-----------2---|-----2------------------------------------|
D|-----4------4-------------------|----2----------2-------2------------------|
A|--5----------------5------------|---4-------4------------------------------|
E|--------------------------------|--2---------------------------------------|
         E
e|-------------0--------|-----0----------------------------------------------|
B|----------------------|----2-----------------------------------------------|
G|-----1----------------|---2------------------------------------------------|
D|----2----------2------|--0-------------------------------------------------|
A|---2----2-------------|----------------------------------------------------|
E|--0-------------------|----------------------------------------------------|

The song is mainly played through the chords indicated but guitar emphasis is mainly on the chorus.


With every passing moment 
Thoughts of you run through my head 
Every time that I'm near you 
I realize that you're heaven sent, baby 

I think you're truly something special 
Just what my dreams are really made of 
Let's stay together, you and me boy 
There's no one like you around 
Oh baby 

I really like 
What you've done to me 
I can't really explain it 
I'm so into you 

I really like 
What you've done to me 
I can't really explain it 
I'm so into you 

It could be the way that you hold me 
It could be the things that you say 
(That you say) 
Oh, I'm not too sure what it is boy 
But I know I like feeling this way, hey 

I think you're truly something special 
Just what my dreams are really made of 
Let's stay together, you and me boy 
There's no one like you around 
Oh baby 

I really like 
What you've done to me 
I can't really explain it 
I'm so into you 

I really like what I feel when I'm with you 
You're a dream come true 
Don't you ever leave my side 
Cuz it feels so right 

I really like 
What you've done to me 
I can't really explain it 
I'm so into you 

I really like 
I'm so into you 
I'm so into you 
Oh, I'm so into you
            
Hard to play? Try these video lessons and learn fast. | Correct




comments powered by Disqus
↑ Back to top | Tablatures and chords are parodies/interpretations of the original songs. You may use it for private study, scholarship, research or language learning purposes only