» » »

Officially Missing You Tabs (ver.3)

Artists:  A B C D E F G H I J K L M N O P Q R S T U V W X Y Z # 

Officially Missing You Tabs (ver.3)

Tamia
Rating:
3/5 (6 votes)

Hard to play? Try these video lessons and learn fast.
                I learned this song about a year ago by playing the other posted tabs. I knew there was
wrong with it but it almost sounded just like the song so I just carried on with it and
playing the same tabs. I was bored so I started fixing the parts that i thought was 
I think I got it. Now I am not one of those people that say the other tabs are wrong
this is 100% accurate blah blah blah. If it wasn't for the other tabs I wouldn't be able
play and fix the song so my hat goes off to whoever got it all started. So enough with
BS and here is the tabs.

*If you don't think this is the most accurate guitar tabs of this song... Don't comment
saying all that cr*p. Just try to post a better one then.*

*Also... you guys might think I'm just making it look hard by tabbing with fret notes
than using open notes. I just find the sound more whole and not scrambled or rattling when
play open notes. So try and play the parts that you know can be played with open notes
try to hear the difference between them.

Intro:

--------------------------------------------------|
---3-3----3----2-4----4----8-8----8----5----------|
---4-4----4----2-4----4----7-7----7----7--4----4--|
---------------------------9-9----9-------5----5--|
-----------------2--2----7---7--7----5------------|
-3---3--3----2----------------------------3--3----|


--------------------------------------------------|
---5-5----5----3-7h8---8---------------8-8--------|
---4-4----4----2-7-----7----5-5----5---7-7--------|
-----------------9-----9----7-7----7--------------|
-3---3--3----2---7---7-----------------5-5--------|
--------------------------5---5--5----------------|


Verse 1:

--------------------------------------------------|
---3-3----3----2-4----4----8-8----8----5----------|
---4-4----4----2-4----4----7-7----7----7--4----4--|
---------------------------9-9----9-------5----5--|
-----------------2--2----7---7--7----5------------|
-3---3--3----2----------------------------3--3----|


--------------------------------------------------|
---5-5----5----3-7h8---8---------------8-8--------|
---4-4----4----2-7-----7----5-5----5---7-7--------|
-----------------9-----9----7-7----7--------------|
-3---3--3----2---7---7-----------------5-5--------|
--------------------------5---5--5----------------|


Verse 2:

--------------------------------------------------|
---3-3----3----2-4----4----8-8----8----5----------|
---4-4----4----2-4----4----7-7----7----7--4----4--|
---------------------------9-9----9-------5----5--|
-----------------2--2----7---7--7----5------------|
-3---3--3----2----------------------------3--3----|


--------------------------------------------------|
---5-5----5----3-7h8---8---------------8-8--------|
---4-4----4----2-7-----7----5-5----5---7-7--------|
-----------------9-----9----7-7----7--------------|
-3---3--3----2---7---7-----------------5-5--------|
--------------------------5---5--5----------------|


Chorus:

--------------------------------------------------|
---3-3----3----2-4----4----8-8----8----5----------|
---4-4----4----2-4----4----7-7----7----7--4----4--|
---------------------------9-9----9-------5----5--|
-----------------2--2----7---7--7----5------------|
-3---3--3----2----------------------------3--3----|


--------------------------------------------------|
---5-5----5----3-7h8---8---------------8-8--------|
---4-4----4----2-7-----7----5-5----5---7-7--------|
-----------------9-----9----7-7----7--------------|
-3---3--3----2---7---7-----------------5-5--------|
--------------------------5---5--5----------------|


Verse 3:

--------------------------------------------------|
---3-3----3----2-4----4----8-8----8----5----------|
---4-4----4----2-4----4----7-7----7----7--4----4--|
---------------------------9-9----9-------5----5--|
-----------------2--2----7---7--7----5------------|
-3---3--3----2----------------------------3--3----|


--------------------------------------------------|
---5-5----5----3-7h8---8---------------8-8--------|
---4-4----4----2-7-----7----5-5----5---7-7--------|
-----------------9-----9----7-7----7--------------|
-3---3--3----2---7---7-----------------5-5--------|
--------------------------5---5--5----------------|


Refrain:

---3----------3-2----2------------------------------|
---3-5----5---3-3----3----8-8----8----5-------------|
-----4----4---------------7-7----7----4-4-----------|
--------------------------9-9----9------5-----------|
-3---3--3---2---2--2----7---7--7--------------------|
------------------------------------3---3-----------|


---3-----------2------------------------------------|
---3-5----5----3-7h8-8--------------8-8-------------|
-----4----4----2-7---7----5-5----5--7-7-------------|
-----------------9---9----7-7----7------------------|
-3---3--3----2---7---7--------------5-5-------------|
------------------------5---5--5--------------------|

*Bridge:

the version 4 of this tab which you can see above or when you search this song has the
bridge so I do not want to post it up and have that person complain and all so sorry for
it hard for you... just look that up :)


Chorus:

--------------------------------------------------|
---3-3----3----2-4----4----8-8----8----5----------|
---4-4----4----2-4----4----7-7----7----7--4----4--|
---------------------------9-9----9-------5----5--|
-----------------2--2----7---7--7----5------------|
-3---3--3----2----------------------------3--3----|


--------------------------------------------------|
---5-5----5----3-7h8---8---------------8-8--------|
---4-4----4----2-7-----7----5-5----5---7-7--------|
-----------------9-----9----7-7----7--------------|
-3---3--3----2---7---7-----------------5-5--------|
--------------------------5---5--5----------------|

interlude: (sort of)

--------------------------------------------------|
---3-3----3----2-4----4----8-8----8----5----------|
---4-4----4----2-4----4----7-7----7----7--4----4--|
---------------------------9-9----9-------5----5--|
-----------------2--2----7---7--7----5------------|
-3---3--3----2----------------------------3--3----|


--------------------------------------------------|
---5-5----5----3-7h8---8---------------8-8--------|
---4-4----4----2-7-----7----5-5----5---7-7--------|
-----------------9-----9----7-7----7--------------|
-3---3--3----2---7---7-----------------5-5--------|
--------------------------5---5--5----------------|


Outro: (violin)

------7h8-7~~~--7-10-9~~~-------7~~~---10-13~~~-12~~-10-12~~~-14-15-17-15--|
-8h10---------------------10~~~--------------------------------------------|
---------------------------------------------------------------------------|
---------------------------------------------------------------------------|
---------------------------------------------------------------------------|
---------------------------------------------------------------------------|


-7p5----------------------------------------------|
-----8h10-13~~-12~~-8~~-5-5~~~--------------------|
--------------------------------------------------|
--------------------------------------------------|
--------------------------------------------------|
--------------------------------------------------|
            
Hard to play? Try these video lessons and learn fast. | Correct




comments powered by Disqus
↑ Back to top | Tablatures and chords are parodies/interpretations of the original songs. You may use it for private study, scholarship, research or language learning purposes only