» » »

Tamia, Officially Missing You Tabs (ver.2)

Artists:  A B C D E F G H I J K L M N O P Q R S T U V W X Y Z # 

Officially Missing You Tabs (ver.2)

Tamia Tabs
 Rating:
4/5 (14 votes)
Officially Missing You lessons Tabs too difficult? Try these video lessons and learn fast
                Tamia - Officially Missing You

combined everything together and added some of my own little twists in there hehe~

Introduction and Chorus [When you're approaching bridge 1, instead of playing [x5758x], 
it with [x2424x] - please refer back to the song ^__^]

E|-------------------------------------------------------------2-----------------------| |-----|
B|---3-3---3-------2-4---4-----8-8---8-----5-5---5-5---5-------3-7h8---8---5-5---5-8-8-| |-4-4-|
G|---4-4---4-------2-2---2-----7-7---7-----5-4---4-4---4-------2-7-----7---5-5---5-5-5-| |-2-2-|
D|---4-4---4-------2-4---4-----9-9---9-----5-3---5-5---5---------9-----9---5-5---5-7-7-| |-4-4-|
A|-------------------2-2---0-7---7-7-----------3---3-3---0-0\2---7---7-------------5-5-| |-2-2-|
E|-3---3-3---0-0\2---------------------0-5---3---------------------------5---5-5-------| |-----|


Bridge 1

E|---------------------------------2----------|
B|---5-5---3-3---8-8---5-5---5-5---3-8-5~-8-8-|
G|---4-4---2-2---7-7---5-5---4-4---2-7-5~-5-5-|
D|---5-5---4-4---9-9---5-5---5-5-----9-5~-7-7-|
A|-3---3-2---2-7---7-------3---3-2---7----5-5-|
E|-------------------5---5-------------5~-----|


Bridge 2

E|--------------------------------------|
B|-1-3-5~-1-3-5~-5-4-8-7-5~-5~---5~-8-8-|
G|-2-4-4~-2-4-4~-4-2-7-8-6~-4~---4~-5-5-|
D|-3-5-5~-3-5-5~-5-4-9-9-7~-5~--5---7-7-|
A|-----3~-----3~-3-2-7-9-7~-3~-3----5-5-|
E|-1-3----1-3---------------------------|


/     = Slide Up
\     = Slide Down
h     = Hammer On
~     = Vibrato


Tessijia~
            
Submit corrections

comments powered by Disqus
↑ Back to top | Tamia Tabs for Officially Missing You. Lyrics for acoustic guitar and electric guitar. Tablatures and chords are parodies/interpretations of the original songs. You may use it for private study, scholarship, research or language learning purposes only