» » »

Almost Bass tabs (ver.1)

Artists:  A B C D E F G H I J K L M N O P Q R S T U V W X Y Z # 

Almost Bass tabs (ver.1)

Tamia
Rating:
0/5 (0 votes)

Hard to play? Try these video lessons and learn fast.
                -----------------------------------------------------
	"Almost" (Bass) - Tamia
-----------------------------------------------------

Tuning: Standard

     VERSE
G|---------------------------------------|
D|---------------------------------------| X 2
A|-------------6-6--6-6-9-9-11-13-14-16--|
E|-7-7-9-9-6-6---------------------------|

     CHORUS 
G|--------------------------------------|
D|--------------------------------------|
A|-------------6-6-------------9-8-7----|
E|-7-7-9-9-6-6-----7-7-9-9-6-6-------9--|
 
G|------------------------------------------|
D|------------------------------------------|
A|-------------6-6------------------6-4-----|
E|-7-7-9-9-6-6-----4-4-4-4-4-6-7-9------4-2-|
            
Hard to play? Try these video lessons and learn fast. | Correct




comments powered by Disqus
↑ Back to top | Tablatures and chords are parodies/interpretations of the original songs. You may use it for private study, scholarship, research or language learning purposes only