» » »

Sundown Syndrome Tabs (ver.1)

Artists:  A B C D E F G H I J K L M N O P Q R S T U V W X Y Z # 

Sundown Syndrome Tabs (ver.1)

Tame Impala
Rating:
4/5 (3 votes)

Hard to play? Try these video lessons and learn fast.
                
     |--2-2--444---2-2--444---2-2--444----------------------|
     |--2-2--444---2-2--444---2-2--444----------------------|
     |--2-2--444---2-2--444---2-2--444----------------------|
     |--2-2--222---2-2--222---2-2--222----------------------|
     |------------------------------------------------------|
     |------------------------------------------------------|
Wah    |    \      \     -      _
Pedal:

Continue This Riff Through The Whole Song, with different timing. Listen to the for timing issues

The chorus is:

     |--4----5---7----7---5---4---------------------------------|
     |--6----7---9----9---7---6---------------------------------|
     |--6----7---9----9---7---6---------------------------------|
     |--6----7---9----9---7---6---------------------------------|
     |--4----5---7----7---5---4---------------------------------|
     |----------------------------------------------------------|

and there we have it
plz rate and comment with any suggestions
            
Hard to play? Try these video lessons and learn fast. | Correct




comments powered by Disqus
↑ Back to top | Tablatures and chords are parodies/interpretations of the original songs. You may use it for private study, scholarship, research or language learning purposes only