>
 >
Music To Walk Home By 1

Music To Walk Home By 1 Guitar Tabs

Tame Impala - Music To Walk Home By 1 chords, tabs, tablatures, lyrics

Guitar lessons | Add/correct | Request | Top 50 tabs Artists:  A B C D E F G H I J K L M N O P Q R S T U V W X Y Z 0-9

Music To Walk Home By 1 Guitar Tabs – Tame Impala

CD, Sheet music, Poster

Do you like Music To Walk Home By 1? Share with your friends now
Bass TabsTabsTabs v2
this is a complete copy of the other tab except in standard tuning, for all you lazy guitarists ;)

Verse
e|-10--10-10-10--10-10-10-8--8--8---8--8--8---8--8--8---|
B|-10--10-10-10--10-10-10-8--8--8---8--8--8---8--8--8---|
G|-11--11-11-11--11-11-11-9--9--9---9--9--9---9-9--9---|
D|-12--12-12-12--12-12-12--10-10-10--10-10-10--10-10-10--|
A|-12--12-12-12--12-12-12--10-10-10--10-10-10--10-10-10--|
E|-10--10-10-10--10-10-10-8--8--8---8--8--8---8--8--8---|

Sometimes played as:

e|-10--10-10-10--10-10-10--12-12-12--12-12-12--12-12-12--|
B|-10--10-10-10--10-10-10--12-12-12--12-12-12--12-12-12--|
G|-11--11-11-11--11-11-11--12-12-12--12-12-12--12-12-12--|
D|-12--12-12-12--12-12-12--10-10-10--10-10-10--10-10-10--|
A|-12--12-12-12--12-12-12--------------------------------|
E|-10--10-10-10--10-10-10--------------------------------|

After three repeats:

e|-10--10-10-10--10-10-10--8--8--8---8--8--8---8--8--8---|
B|-10--10-10-10--10-10-10--10-10-10--10-10-10--10-10-10--|
G|-11--11-11-11--11-11-11--9--9--9---9--9--9---9-9--9---|
D|-12--12-12-12--12-12-12--10-10-10--10-10-10--10-10-10--|
A|-12--12-12-12--12-12-12--8--8--8---8--8--8---8--8--8---|
E|-10--10-10-10--10-10-10--------------------------------|

----

'Can almost stand competing with the others...'
e|-5-5-5--5-5-5--5-5-5--5-x-x-5---5-5-5--5-5-5--5--------|
B|-7-7-7--7-7-7--7-7-7--7-x-x-5---5-5-5--5-5-5--5--------|
G|-6-6-6--6-6-6--6-6-6--6-x-x-5---5-5-5--5-5-5--5--------|
D|-7-7-7--7-7-7--7-7-7--7-x-x-7---7-7-7--7-7-7--7--------|
A|-5-5-5--5-5-5--5-5-5--5-x-x-7---7-7-7--7-7-7--7--------|
E|------------------------x-x-5---5-5-5--5-5-5--5--------|




e|-5-5-5--5-5-5--5-5-5--5-x-x-5--x----x-3--x------------------|
B|-7-7-7--7-7-7--7-7-7--7-x-x-5--x-5--x-3--x-7---7-7-7--7-7-7-|
G|-6-6-6--6-6-6--6-6-6--6-x-x-5--x-5--x-4--x-7---7-7-7--7-7-7-|
D|-7-7-7--7-7-7--7-7-7--7-x-x-7--x-5--x-5--x-7---7-7-7--7-7-7-|
A|-5-5-5--5-5-5--5-5-5--5-x-x-7--x-3--x-5--x-5---5-5-5--5-5-5-|
E|------------------------x-x-5--x----x-3--x------------------|


e|-5-5-5--5-5-5--5-5-5---3-3-3--3-3-3--3-3-3--3-3-3--x-x-5--x-x-7---x-x-----|
B|-5-5-5--5-5-5--5-5-5---3-3-3--3-3-3--3-3-3--3-3-3--x-x-5--x-x-7---x-x-10~-|
G|-5-5-5--5-5-5--5-5-5---4-4-4--4-4-4--4-4-4--4-4-4--x-x-5--x-x-7---x-x-10~-|
D|-7-7-7--7-7-7--7-7-7---5-5-5--5-5-5--5-5-5--5-5-5--x-x-7--x-x-9---x-x-10~-|
A|-7-7-7--7-7-7--7-7-7---5-5-5--5-5-5--5-5-5--5-5-5--x-x-7--x-x-9---x-x-8-~-|
E|-5-5-5--5-5-5--5-5-5---3-3-3--3-3-3--3-3-3--3-3-3--x-x-5--x-x-7-----------|

Return to the first verse. After that, there is this 'strange' part where
some synth comes in, pitch turns up or something. Then:

'I just don't know...'
e|-5---5~------5---7~--|
B|-7---5~------7---7~--|
G|-6---6~------6---7~--|
D|-7---7~------7---5~--|
A|-5---7~------5-------|
E|-----5~--------------|

Repeated a lot of times, until:

'You'll know soon...'
e|----------|
B|--7---5---|
G|--7---5---|
D|--7---5---|
A|--5---3---|
E|----------|

Also repeat a lot of times, 
the synth does something like this (second one is variation):
e|---------------------------------------------------------------------------|
B|-7h8p7h8p7h8h10p8h10p8-----------7h8p7h8p7h8h10p8h10/12\10~----------------|
G|-----------------------11~-------------------------------------------------|
D|---------------------------------------------------------------------------|
A|---------------------------------------------------------------------------|
E|---------------------------------------------------------------------------|

Then, the synth changes, so do the chords:
e|-1---1------0---0--|
B|-3---1------1---0--|
G|-4---2------2---0--|
D|-------------------|
A|-------------------|
E|-------------------|

When the synth stops (around 3:19), he fingerpicks the chords, all three
string at the same time

e|-1-1-1-1-1-1-1-1-1-1-1-1-0-0-0-0-0---0-0-0-0-0-0-0-0-0-0-0-0-0-0-----------|
B|-3-3-3-1-1-1-1-1-1-1-1-1-1-1-1-1-1---0-0-0-0-0-0-0-0-0-0-0-0-0-0-----------|
G|-4-4-4-2-2-2-2-2-2-2-2-2-2-2-2-2-2---0-0-0-0-0-0-0-0-0-0-0-0-0-0-----------|
D|---------------------------------------------------------------------------|
A|---------------------------------------------------------------------------|
E|---------------------------------------------------------------------------|

Again repeat it a couple of times. Then, the drums stop and the guitar is
something like this:

e|---------------------------------------------------------------------------|
B|---------------------------------------------------------------------------|
G|---------------------------------------------------------------------------|
D|---------------------------------------------------------------------------|
A|-5------4------4------4------7------5------5------5------5------4------4---|
E|----5h7----5h7----5h7----5h7----5h7----5h7----5h7----5h7----5h7----5h7-----|

e|---------------|
B|---------------|
G|---------------|
D|---------------|
A|-----4------7--|
E|-5h7----5h7----|

e|-5---5~------5---7~--|
B|-7---5~------7---7~--|
G|-6---6~------6---7~--|
D|-7---7~------7---5~--|
A|-5---7~------5-------|
E|-----5~--------------|

Repeat this one until the end. I think the synth follows the vocal lines:
e|---------------------------------------------------------------------------|
B|-7---8-7--5~----5---3-2--3~--\0~-------------------------------------------|
G|---------------------------------------------------------------------------|
D|---------------------------------------------------------------------------|
A|---------------------------------------------------------------------------|
E|---------------------------------------------------------------------------|

Also, the end riff.
e|------------------------------------|
B|------------------------------------|
G|------------------------------------|
D|------------------------------------|
A|---4-5-4---4---------4-5-4----------|
E|-7-------7---5~----7-------7-5-3~---|





Comments


Popular Tame Impala tabs & chords
Desire Be Desire Go 1 Bass Tabs
Half Full Glass Of Wine Bass Tabs
Island Walking Bass Tabs
Alter Ego Chords
Feels Like We Only Go Backwards Tabs
I Dont Really Mind Tabs
Led Zeppelin 1 Tabs
Solitude Is Bliss Intro Tabs
Why Wont You Make Up Your Mind 1 Tabs
Feels Like We Only Go Backwards Ukulele


Song lyrics



↑ Back to top | Tablatures and chords are parodies/interpretations of the original songs. You may use it for private study, scholarship, research or language learning purposes only
© 2014 AZChords.com Contact us | Privacy policy | DMCA | Add/correct tabs | Request tabs | Top 50 tabs