» » »

Tame Impala, Jeremys Storm Tabs (ver.2)

Artists:  A B C D E F G H I J K L M N O P Q R S T U V W X Y Z # 

Jeremys Storm Tabs (ver.2)

Tame Impala Tabs
 Rating:
4/5 (4 votes)
Jeremys Storm lessons Tabs too difficult? Try these video lessons and learn fast
1
                                       Tame Impala - Jeremy's Storm
                       from their 2010 Innerspeaker Album

Guitar 1 – Electric guitar
eb| -7----------------------5----|-7--------------------5------|
Bb| -------5-------------5-------|-------5-----------5---------|
Gb| ------------5h7r5------------|-----------5h7r5-------------|
Db| -----------------------------|-----------------------------|
Ab| -0---0---0-----------------0-|-0---0---0-----------------0-|
Eb| -----------------------------|-----------------------------|

eb| -4----------------------2----|-4-----------------------2---|
Bb| ------2------------2---------|-------2------------2--------|
Gb| ----------2h4r2--------------|-----------2h4r2-------------|
Db| -----------------------------|-----------------------------|
Ab| -0---0---0-----------------0-|-0---0---0-----------------0-|
Eb| -----------------------------|-----------------------------|

eb| -0-----------------1---------|--------1--------------------|
Bb| -------1-----------------1---|--------------1---3----------|
Gb| -----------2-----------------|-2-------------------3-------|
Db| ---------------3-------------|-----3-----------------------|
Ab| -3---3---3---3---------------|--------1---1---1---1--------|
Eb| -------------------1---1---1-|---1---------------------1/5-|

eb| ----------5-|
Bb| ------5-----|
Gb| --5---------| x4 to 1:00
Db| -7----------|guitar 2 plays same progression with one slight variation
Ab| ------------|
Eb| ----5---5---|

        Guitar 2 variation
eb| -0-----------------1---------|--------1--------------------|
Bb| -------1-----------------1---|--------------1---3----------|
Gb| -----------2-----------------|-2-------------------3-------|
Db| ---------------3-------------|-----3-----------------------|
Ab| -3---3---3---3-----1---1---1-|---1---1---1---1---1---------|
Eb| -----------------------------|-------------------------1/5-|

        1:00
        Guitar 1
eb| -7----------------------5----|-7--------------------5------|
Bb| -------5-------------5-------|-------5-----------5---------|
Gb| ------------5h7r5------------|-----------5h7r5-------------|
Db| -----------------------------|-----------------------------|
Ab| -0---0---0-----------------0-|-0---0---0-----------------0-|
Eb| -----------------------------|-----------------------------|

eb| -4----------------------2----|-4-----------------------2---|
Bb| ------2------------2---------|-------2------------2--------|
Gb| -----------2h4r2-------------|-----------2h4r2-------------|
Db| -----------------------------|-----------------------------|
Ab| -0---0---0-----------------0-|-0---0---0-----------------0-|
Eb| -----------------------------|-----------------------------|

eb| -0--------------------------|-------0---------------------|
Bb| -------1--------------------|-2-----------0---------------|
Gb| -----------2----------------|----4------------1-----------|
Db| ---------------3---2---3----|---------------------2---1---|
Ab| -3---3---3---3---3---3---3--|---3---2---2---2---2---2---2-|
Eb| ----------------------------|-----------------------------|

eb| -----------0----------------|-----------------0-----------|
Bb| ---------3-------1----------|-------2---------------0-----|
Gb| -----1---------------2------|-----------4---------------1-|
Db| -2-----------------------3--|---2-------------------------|
Ab| ---2---2---3---3---3---3----|-3---3---3---3---2---2---2---|
Eb| ----------------------------|-----------------------------|

eb| ---------------------|
Bb| -------------------3-|
Gb| --------------1------|
Db| ---2---1---2---------|
Ab| -2---2---2---2---2---|
Eb| ---------------------|

eb| ---------------------|
Bb| -------3-------3---4-|
Gb| -----------1---------| x Final bar play this
Db| ---2-----------------|
Ab| -2---2---2---2---2---|
Eb| ---------------------|





     1:15
     Guitar 2 – clean, rhythm
        D  d u  d  d  d u  d  d                          d  d u  d  d  d u  d  d
eb| -0--0-0--0--0--0-0--0--0-----|-0--0-0--0--0--0-0--0--0---------|
Bb| -1--1-1--1--1--1-1--1--1-----|-0--0-0--0--0--0-0--0--0---------|
Gb| -2--2-2--2--2--2-2--2--2-----|-1--1-1--1--1--1-1--1--1---------|
Db| -3--3-3--3--3--3-3--3--3-----|-2--2-2--2--2--2-2--2--2---------|
Ab| -3--3-3--3--3--3-3--3--3-----|-2--2-2--2--2--2-2--2--2---------|
Eb| ------------------------------|-0--0-0--0--0--0-0--0--0--------|

        1:35 Guitar 1
eb| ---5---------5---------7-----|-----5-------5--------5------|
Bb| ---5---------5---------7-----|-----5-------5--------5------|
Gb| -----------------------------|-----------------------------|
Db| -----------------------------|-----------------------------|
Ab| -7---------7---------7-------|--7--------7--------7--------|
Eb| -----------------------------|-----------------------------|

eb| ----7-------5/--|
Bb| ----7-------5/--|
Gb| ----------------|
Db| ----------------|
Ab| -7--------7-----|
Eb| ----------------|

        1:35
        Guitar 2
                  du d d du d d< start slide on this down stroke
eb| -----------------------------|
Bb| -----------------------------|
Gb| -----------------------------|
Db| -----------------------------|
Ab| --7/9-9-9-9/7-77-7-7-77-7-7--|
Eb| --0---0-0-----00-0-0-00-0-0--|

      2:08
      Guitar 1
eb| -----------------------------|
Bb| -----------------------------|
Gb| -----------------------------|
Db| --5/7-7-7/5-55-5-5-55-5-5----|
Ab| --7/9-9-9/7-77-7-7-77-7-7----|
Eb| -----------------------------|

      2:32
      Guitar 2
eb| ---5---------5---------7-----|-----5-------5--------5------|
Bb| ---5---------5---------7-----|-----5-------5--------5------|
Gb| -----------------------------|-----------------------------|
Db| -----------------------------|-----------------------------|
Ab| -7---------7---------7-------|--7--------7--------7--------|
Eb| -----------------------------|-----------------------------|

eb| ----7-------5---|
Bb| ----7-------5---|
Gb| ----------------| x2
Db| ----------------|
Ab| -7--------7-----|
Eb| ----------------|



       2:38
       Guitar 1
eb| --8/5~~~~~-8/5~~~------------|--7b9-5~~~~~-----------------|
Bb| ------------------7/5~~~~~---|-----------------------------|
Gb| -----------------------------|-----------------------------|
Db| -----------------------------|-----------------------------|
Ab| -----------------------------|--------------3/5--5/3-h2----|
Eb| -----------------------------|--------------------------h3-|
            
Submit corrections

comments powered by Disqus
↑ Back to top | Tame Impala Tabs for Jeremys Storm. Lyrics for acoustic guitar and electric guitar. 1 Tablatures and chords are parodies/interpretations of the original songs. You may use it for private study, scholarship, research or language learning purposes only