» » »

I Dont Really Mind Tabs (ver.1)

Artists:  A B C D E F G H I J K L M N O P Q R S T U V W X Y Z # 

I Dont Really Mind Tabs (ver.1)

Tame Impala
Rating:
0/5 (0 votes)

Hard to play? Try these video lessons and learn fast.
                                       Tame Impala - I Don't Really Mind
                       from their 2010 album Innerspeaker

Phased guitar intro:
Guitar 1:
e|------------------------------------------------------|
B|------------------------------------------------------|
G|------------------------------------------------------|
D|------------------------------------------------------|
A|-9--9--9-9--9--9-9--9-9-9--7--7--7-7--7---------------|
E|-----------------------------------------7--7--7-7-7--|

Verse 1:
"Shifting, shifting, shifting aloud like it makes so much difference to me"
Guitar 1:
e|--------------------------------------------------------------|
B|--------------------------------------------------------------|
G|--------------------------------------------------------------|
D|--------------------------------------------------------------|
A|-4------4/9--9--9-9--9--9-9--9-9-9--7--7--7-7--7--------------|
E|---2----------------------------------------------7-7--7-7-7--|

Guitar 2:
e|----------9----7----7----|
B|---------11----9----7----|
G|---------11----9----8----|
D|---------11----9----9----|
A|----------9----7----9----|
E|--------------------7----|

"Huffing, puffing, marching around like I know how much better it should be"
Guitar 1:
e|-----------------------------------------------------------------|
B|-----------------------------------------------------------------|
G|-----------------------------------------------------------------|
D|-----------------------------------------------------------------|
A|-----------------9--9--9-9-9--9--7--7--7-7-7--7------------------|
E|-9--9--9-9-9--9----------------------------------7--7--7-7-7--7--|

Guitar 2:
e|--9-----9----7----7----|
B|--9----11----9----7----|
G|-10----11----9----8----|
D|-11----11----9----9----|
A|-11-----9----7----9----|
E|--9---------------7----|

Guitar 3:
e|---------------------------------------------------|
B|---------------------------------------------------|
G|---------------------------------------------------|
D|---------------------------------------------------|
A|--------9/11--9-9-----9/11--9-9-----9/11--9-9------|
E|--9--9-------------9-------------9-------------7---|

Pre-chorus:
"I know it looks like I disagree nine tenths of the time"
Guitar 1:
e|-------------------------------------------|
B|-------------------------------------------|
G|-------------------------------------------|
D|---------------------------------9----13---|
A|-7--7--7-7-7--7------------------7----11---|
E|-----------------5--5--5-5-5--5------------|

Guitar 2:
e|-7----5----7----11----|
B|-9----5----9----13----|
G|-9----6----9----13----|
D|-9----7----9----13----|
A|-7----7----7----11----|
E|------5---------------|

Chorus:
"But I don't really mind,
but I don't really mind,
but I don't really mind,
but I don't really mind"
e|---------2----2--0--|
B|---------4----2--0--|
G|---------4----3--1--| x4
D|-4--4----4----4--2--|
A|-4--4----2----4--2--|
E|-2--2---------2--0--|

Verse 2:
"Childhood puppy is old and gruff, your mother wants to give him away"
Guitar 1:
e|-----------------------------------------------------------------|
B|-----------------------------------------------------------------|
G|-----------------------------------------------------------------|
D|-----------------------------------------------------------------|
A|-7--7--7-7-7--7------------------7--7--7-7-7--7--9--9--9-9-9--9--|
E|-----------------5--5--5-5-5--5----------------------------------|

Guitar 2:
e|-0----0----0----2----|
B|-0----2----0----2----|
G|-1----2----1----3----|
D|-2----2----2----4----|
A|-2----0----2----4----|
E|-0---------0----2----|

Guitar 3:
e|---------------------------|
B|---------------------------|
G|---------------------------|
D|---------------------------|
A|-7---------7----7/11-\9----|
E|------5--------------------|

"Pillar of strength was lifted off his deathbed, three weeks ago today"
Guitar 1:
e|--------------------------------------------------------|
B|--------------------------------------------------------|
G|--------------------------------------------------------|
D|----------------------------------------------------9---|
A|-7--7--7-7-7--7------------------7--7--7-7-7--7-7-------|
E|-----------------5--5--5-5-5--5-------------------------|

Guitar 2:
e|-0----0----0----0--2--|
B|-0----2----0----0--4--|
G|-1----2----1----1--4--|
D|-2----2----2----2--4--|
A|-2----0----2----2--2--|
E|-0---------0----0-----|

Guitar 3:
e|----------------------------------------|
B|----------------------------------------|
G|----------------------------------------|
D|----------------------------------------|
A|-7---------7--7/14--14--14--14--14--14--|
E|------5---------------------------------|

Chorus:
"But I don't really mind,
but I don't really mind,
but I don't really mind,
but I don't really mind"
e|---------2----2--0--|
B|---------4----2--0--|
G|---------4----3--1--| x4
D|-4--4----4----4--2--|
A|-4--4----2----4--2--|
E|-2--2---------2--0--|

Synth section:
Obviously this is played on a synth, but I tabbed it for guitar.
Just keep strumming or sustaining these chords for the length that they are played.
I won't add any strumming pattern or anything because that's up to you.
e|---------------------------------------------------------------------------|
B|-------------------------------------4~~~~~~~~~~~~~~-----------------------|
G|-5~~~~~~~~~~~~~~~~~~~~~~~~~~~~~~~~~~~5~~~~~~~~~~~~~~5~~~~~~~~~~~~~~~~~~~~--|
D|---------------------------------------------------------------------------|
A|-3~~~~~~~~~~~~~~~~~~~~~~~~~~~~~~~~~~~3~~~~~~~~~~~~~~3~~~~~~~~~~~~~~~~~~~~--|
E|---------------------------------------------------------------------------|

e|---------------------------------------------------------------------------|
B|--------------------8~~~~~~~~~~~~~~~~--------------------------------------|
G|-8~~~~~~~~~~~~~~~~~~8~~~~~~~~~~~~~~~~5~~~~~~~~~~~~~------7~~~~~~~~~~~~~~~--|
D|----------------------------------------------------8~~~~8~~~~~~~~~~~~~~~--|
A|-6~~~~~~~~~~~~~~~~~~6~~~~~~~~~~~~~~~~3~~~~~~~~~~~~~------------------------|
E|----------------------------------------------------6~~~~6~~~~~~~~~~~~~~~--|

e|---------------------------------------------------------------------------|
B|--------------------8~~~~~~~~~~~~~~~~--------------------------------------|
G|-8~~~~~~~~~~~~~~~~~~8~~~~~~~~~~~~~~~~5~~~~~~~~~~~~~~-------7~~~~~~~~~~~~~~~|
D|----------------------------------------------------8~~~~~~8~~~~~~~~~~~~~~~|
A|-6~~~~~~~~~~~~~~~~~~6~~~~~~~~~~~~~~~~3~~~~~~~~~~~~~~-----------------------|
E|----------------------------------------------------6~~~~~~6~~~~~~~~~~~~~~~|

e|---------------------------------------------------------------------------|
B|--------------------8~~~~~~~~~~~~~~~~--------------------------------------|
G|-8~~~~~~~~~~~~~~~~~~8~~~~~~~~~~~~~~~~5~~~~~~~~~~~~~~~~~~~~~~~~~~~~~~~~~~~~~|
D|---------------------------------------------------------------------------|
A|-6~~~~~~~~~~~~~~~~~~6~~~~~~~~~~~~~~~~3~~~~~~~~~~~~~~~~~~~~~~~~~~~~~~~~~~~~~|
E|---------------------------------------------------------------------------|

Chorus:
"But I don't really mind,
but I don't really mind,
but I don't really mind,
but I don't really mind,
but I don't really mind,
but I don't really mind,
but I don't really mind,
but I don't really mind,
but I don't really mind,
but I don't really mind"
e|---------2----2--0--|
B|---------4----2--0--|
G|---------4----3--1--| x10
D|-4--4----4----4--2--|
A|-4--4----2----4--2--|
E|-2--2---------2--0--|

Fade out.


************************************

| /   slide up
| \   slide down
| h   hammer-on
| p   pull-off
| ~   sustain
| +   harmonic
| x   Mute note
| b   Bend
| pb  Pre-bend
| br  Bend release
| pbr Pre-bend release
| brb Bend release bend

************************************
            
Hard to play? Try these video lessons and learn fast. | Correct




comments powered by Disqus
↑ Back to top | Tablatures and chords are parodies/interpretations of the original songs. You may use it for private study, scholarship, research or language learning purposes only