» » »

Tame Impala, Half Full Glass Of Wine Tabs (ver.1)

Artists:  A B C D E F G H I J K L M N O P Q R S T U V W X Y Z # 

Half Full Glass Of Wine Tabs (ver.1)

Tame Impala Tabs
Rating:
5/5 (6 votes)
Half Full Glass Of Wine lessons Tabs too difficult? Try these video lessons and learn fast
                heres an awesome song from an awesome band.



INTRO (FAST)

E-----------------------------------------------------|
B-----------------------------------------------------|
G-----------------------------------------------------|
D-----6B-------6B-------6B-------6B-----ETC-----------|SLOW DOWN AT THE END
A-8-8----8---8----8---8----8---8----8-----------------|
E-----------------------------------------------------|

MAIN RIFF (SLOW)

E----------------------------------------------------|
B----------------------------------------------------|
G----------------------------------------------------|
D----------------------------------------------------|
A-----6B-------6B-------6B-------6B-------6B---------|
E-8-8----8---8----8---8----8---8----8---8----8-------|

E----------------------------------------------------|
B----------------------------------------------------|
G---------------------9----7-----9-------------------|
D-10-----------------10----8-----10------------------|
A----10----6--8--10----------------------------------|
E-------8--------------------------------------------|

SAID YOU WOULDNT BE HOME LATE TONIGHT....

E-----------------------------------------------------|
B-----------------------------------------------------|
G-----------------------------------------------------|
D-----------------------------------------------------|
A-----------------------------------6B-------6B-------|
E---8----8-8----8-8----8-8----6-8-8----8---8---8------|BLAH BLAH YADA YADA ETC

NEXT BIT (0:45)

E-----------------------------------------------------|
B-----------------------------------------------------|
G---------8B--------------------9--/--7--7------------|
D-8-10-10----10-----------------X--/--X--X------------|
A-----------------8--9--10------10-/--8--8------------|
E-------------------------------8--/--6--6------------|

NOW MY ONLY COMPANY'S...

E----------------------------------------------------------------|
B--10---10-10---10-10---10-10---10---10-10---10---10-10---10-10--|
G--10---10-10---10-10---10-10---10---10-10---10---10-10---10-10--|
D--10---10-10---10-10---10-10---10---10-10---10---10-10---10-10--|
A--8----8--8----8--8----8--8----8----8--8----8----8--8----8--8---|
E----------------------------------------------------------------|

CHORUS (IT'S BEEN SOOOO LONG...)

E-------------------------------------6---------------|
B----------------10-------------------6---------------|
G----------------10-------------------7---------------|
D-----------5----10-------------5-----8---------------|
A-------5--------8----------5---------8---------------|
E---3-3---3---3---------3-3---3---3---6---------------|

Do THAT X 3 AND THEN...

E----------------------3--3-3---3-3--3-3-----|
B----------------10----3--3-3---3-3--3-3-----|
G----------------10----4--4-4---4-4--4-4-----|
D-----------5----10----5--5-5---5-5--5-5-----|
A-------5--------8-----5--5-5---5-5--5-5-----|
E---3-3---3---3--------3--3-3---3-3--3-3-----|

THEN AT THE END OF THE SONG IT GOES

E-8---8--8---8--8---8--8--------------6---6--6--------|
B-8---8--8---8--8---8--8---8---8--8---6---6--6--------|
G-9---9--9---9--9---9--9---8---8--8---7---7--7--------|
D-10--10-10--10-10--10-10--8---8--8---8---8--8--------|
A-10--10-10--10-10--10-10--6---6--6---8---8--8--------|
E-8---8--8---8--8---8--8--------------6---6--6--------|


E-8---8--8---8--8---3-/-6--------------6---6--6--------|
B-8---8--8---8--8---3-/-6---8---8--8---6---6--6--------|
G-9---9--9---9--9---4-/-7---8---8--8---7---7--7--------|
D-10--10-10--10-10--5-/-8---8---8--8---8---8--8--------|
A-10--10-10--10-10--5-/-8---6---6--6---8---8--8--------|
E-8---8--8---8--8---3-/-6--------------6---6--6--------|

REPEAT A BUTTLOAD OF TIMES
            

comments powered by Disqus
↑ Back to top | Tame Impala Tabs for Half Full Glass Of Wine. Lyrics for acoustic guitar and electric guitar. Tablatures and chords are parodies/interpretations of the original songs. You may use it for private study, scholarship, research or language learning purposes only