>
 >
Feels Like We Only Go Backwards 2

Feels Like We Only Go Backwards 2 Bass Tabs

Tame Impala - Feels Like We Only Go Backwards 2 chords, tabs, tablatures, lyrics

Guitar lessons | Add/correct | Request | Top 50 tabs Artists:  A B C D E F G H I J K L M N O P Q R S T U V W X Y Z 0-9

Feels Like We Only Go Backwards 2 Bass Tabs – Tame Impala

CD, Sheet music, Poster

Do you like Feels Like We Only Go Backwards 2? Share with your friends now
Bass TabsBass Tabs v2ChordsChords v2TabsUkulele
--------------------------------------------------------
Feels Like We Only Go Backwards - Tame Impala (Lonerism)
--------------------------------------------------------

Tuning: Standard (EADG)

Version 1 was pretty good, but it missed all the cool fills during some of chorus 
iv and some other parts were slightly off...

Intro (0:00-0:06)
G|--------------------|
D|--------------------|
A|-10\--10\--10\--10\-|
E|--------------------|


Chorus I (0:06-0:32)
G|-------------------------------------------|
D|--------8-9-10--10---10--------------------|
A|-8--8--------------------10--10------10-10-|
E|----------------------------------10-------|

G|-----------------------------------------------------|
D|--------8-9-10--10---10/12---------------------------|
A|-8--8----------------------10--10-----10--10--10--10-|
E|------------------------------------10--10------10---|

G|---------------------------12--12-----12--14---10-|
D|--------8-9-10--10---10/12----------12--12--------|
A|-8--8---------------------------------------------|
E|--------------------------------------------------|

G|---------------------------------------------------|
D|--------8-9-10--10--10101010-8--8-----8--12--------| < 10's (tens)
A|-8--8-------------------------------10-10------10\-|
E|---------------------------------------------------|


Verse (0:32-0:58)
G|-----------------------7---7--7-7----------------------------------------------------|
D|----------------------7--------7-7-------75--5--5\--------------5--5--5\-------------|
A|-5--5--5--555--5--5--5------------5--5--5-----------2h3--3---2h3---------2h3-3-3p2h3-|
E|-------------------------------------------------------------------------------------|

G|--------------------7----------------------------------|
D|---------------5h7----7------------------5--5---555--5-|
A|-5--5----5-5-----------5----5-5--5--5h7----------------|
E|--------5-5----------------5-5-------------------------|


Chorus II (0:58-1:24)
G|-------------------------------------------|
D|--------8-9-10--10---10--------------------|
A|-8--8--------------------10--10------10-10-|
E|----------------------------------10-------|

G|-----------------------------------------------------|
D|--------8-9-10--10---10/12---------------------------|
A|-8--8----------------------10--10-----10--101010--10-| < 10's (tens)
E|------------------------------------10--10------10---|

G|---------------------------12--12-----12--14---10-|
D|--------8-9-10--10---10/12----------12--12--------|
A|-8--8---------------------------------------------|
E|--------------------------------------------------|

G|---------------------------------------------|
D|--------8-9-10--10--10101010-8--8-----8------| < 10's (tens)
A|-8--8-------------------------------10-1010\-|
E|---------------------------------------------|


Verse II (1:24-1:49)


Chorus III (1:49-2:15)
G|-------------------------------------------|
D|--------8-9-10--10-------------------------|
A|-8--8--------------------10--10------10-10-|
E|----------------------------------10-------|

G|-----------------------------------------------------|
D|--------8-9-10--10---10/12---------------------------|
A|-8--8----------------------10--10-----10--101010--10-| < 10's (tens)
E|------------------------------------10--10------10---|

G|---------------------------12--12-----12--14---10-|
D|--------8-9-10--10---10/12----------12--12--------|
A|-8--8---------------------------------------------|
E|--------------------------------------------------|

G|----------------------------------|
D|--------8-9-10--10--10101010-8--8-| < 10's (tens)
A|-8--8-----------------------------|
E|----------------------------------|


Chorus IV (2:15-2:41)
G|-----------------------------------------------------------|
D|--------8-9-10--10---10/12---------------------------------|
A|-8--8----------------------10--10-----10--10h12p10---------|
E|------------------------------------10--10--------13p10h12-|

G|-----------------------------------------------------12-|
D|--------8-9-10--10---10/12----------------------10/12---|
A|-8--8----------------------10--10-----10--10h12---------|
E|------------------------------------10--10--------------|

G|------------------------14---10--------------------|
D|--------8-9-10--10---10/--------12-10-8-8----------|
A|-8--8-----------------------------------------8h10-|
E|------------------------------------------8h10-----|

G|-------------------------------|
D|--------8-9-10--10--10/12-8--8-|
A|-8--8--------------------------|
E|-------------------------------|


Chorus V (2:41-3:13)
G|-------------------------------------------|
D|--------8-9-10--10-------------------------|
A|-8--8--------------------10--10------10-10-|
E|----------------------------------10-------|

G|--------------------------------------------------------|
D|--------8-9-10--10---10/12------------------------------|
A|-8--8----------------------10--10-----10--101010--10h12-| < 10's (tens)
E|------------------------------------10--10------10------|

G|---------------------------12--12-----12--14---10-|
D|--------8-9-10--10---10/12----------12--12--------|
A|-8--8---------------------------------------------|
E|--------------------------------------------------|

G|-------------------------------------------|
D|--------8-9-10--10--10101010-8--8-----8----| < 10's (tens)
A|-8--8-------------------------------10-10--|
E|-------------------------------------------|





Comments


Popular Tame Impala tabs & chords
Feels Like We Only Go Backwards Bass Tabs
Jam Tabs
Led Zeppelin Tabs
Nothing That Has Happened So Far Has Been Anything We Could Control Tabs
Skeleton Tiger Tabs
Vital Signs Tabs
Why Wont You Make Up Your Mind Tabs
She Just Wont Believe Me Ukulele
Solitude Is Bliss Ukulele
Suns Coming Up Ukulele


Song lyrics



↑ Back to top | Tablatures and chords are parodies/interpretations of the original songs. You may use it for private study, scholarship, research or language learning purposes only
© 2014 AZChords.com Contact us | Privacy policy | DMCA | Add/correct tabs | Request tabs | Top 50 tabs