>
 >
Desire Be Desire Go

Desire Be Desire Go Bass Tabs

Tame Impala - Desire Be Desire Go chords, tabs, tablatures, lyrics

Guitar lessons | Add/correct | Request | Top 50 tabs Artists:  A B C D E F G H I J K L M N O P Q R S T U V W X Y Z 0-9

Desire Be Desire Go Bass Tabs – Tame Impala

CD, Sheet music, Poster

Do you like Desire Be Desire Go? Share with your friends now
Bass TabsBass Tabs v2TabsTabs v2Tabs v3


Not the whole song, just about everything except chorus.
Caught their live show recently and highly recommend it.
The stuff I do tab is correct since I was watchin that bassist jam all night.

Verse:

G|----------------------------------------|
D|----------------------------------------|
A|---11-13----11h13-13-11h13-13-----------|
E|---------13-------------------13--11----|


Breakdown:

G|----------------------------------------------------|
D|----------------------------------------------------|
A|---11-13----11h13-13-11h13-13-----------11h13--11~--|
E|---------13-------------------13--11h13-------------|


Awesome band. Awesome song. Enjoy..





Comments


Popular Tame Impala tabs & chords
Half Full Glass Of Wine Bass Tabs
Feels Like We Only Go Backwards Chords
Jeremys Storm 3 Tabs
Mind Mischief Tabs
Prototype Tabs
Runaway Houses City Clouds Tabs
Runway Houses City Clouds 2 Tabs
Skeleton Tiger Intro Tabs
Suns Coming Up Tabs
She Just Wont Believe Me Ukulele


Song lyrics



↑ Back to top | Tablatures and chords are parodies/interpretations of the original songs. You may use it for private study, scholarship, research or language learning purposes only
© 2014 AZChords.com Contact us | Privacy policy | DMCA | Add/correct tabs | Request tabs | Top 50 tabs