» » »

Apocalypse Dreams Bass tabs (ver.2)

Artists:  A B C D E F G H I J K L M N O P Q R S T U V W X Y Z # 

Apocalypse Dreams Bass tabs (ver.2)

Tame Impala
Rating:
0/5 (0 votes)
Tabs too difficult? Try these video lessons and learn fast.
                
Tame Impala ///// Apocalypse Dreams ///// Lonerism 

Bass Tab


Intro/Verse                                  
G||---------------------------|
D||-5--5--5----5--5--5----5---|
A||----------5----------5---5-|
E||---------------------------|

G||---------------------------|
D||---------------------------|
A||---------------------------|
E||-6--6--6--5-6--6--6--5-6-5-|
                                                        
G||-----------------8--7--5---||   X3
D||---------------------------||
A||-5--5--5----5--5-----------||        
E||----------5----------------||        
                                                        


G||------------10--8--6--------------|-----------8h10--8--6-8----7--||
D||----------8-----------------------|-----8--11--------------------||
A||-9---9---9------------6----6--6-6-|-8-9--------------------6-----||
E||--------9-----------------6-6-----|------------------------------||


Verse2
G||---------------------------|    
D||-5--5--5----5--5--5----5---| 
A||----------5----------5---5-| 
E||---------------------------| 
                                        
G||---------------------------| 
D||---------------------------| 
A||---------------------------| 
E||-6--6--6--5-6--6--6--5-6-5-| 
                                                        
G||-----------------8--7--5---||   X2
D||---------------------------||        
A||-5--5--5----5--5-----------||        
E||----------5----------------||        


G||---------------------------|    
D||-5--5--5----5--5--7--7--10-| 
A||----------5----------------| 
E||---------------------------| 
                                        
G||------------------------|    
D||----8--8-7--8--8--8--7--|    
A||------------------------| 
E||------------------------|    
                                                        
G||-------------------8--7--5---||   X2
D||-----------------------------||      
A||---5--5--5----5--5-----------||      
E||-5----------5----------------||

Chorus
G||------------10--8--6--------------|-----------8h10--8--6-8--------------|
D||----------8-----------------------|-----8--11---------------------------|
A||-9---9---9------------6----6--6-6-|-8-9--------------------6---6--6-8/9-|
E||--------9-----------------6-6-----|-------------------------------------|


G||------------10--8--6--------------|-----------8h10--8--6-8----7--||
D||----------8-----------------------|-----8--11--------------------||
A||-9---9---9------------6----6--6-6-|-8-9--------------------6-----||
E||--------9-----------------6-6-----|------------------------------||


Verse3
G||---------------------------|    
D||-5--5--5----5--5--7--7--10-| 
A||----------5----------------| 
E||---------------------------| 
                                        
G||------------------------|    
D||----8--8-7--8--8--8--7--|    
A||------------------------| 
E||------------------------|    
                                                        
G||-------------------8--7--5---||   X3
D||-----------------------------||      
A||---5--5--5----5--5-----------||      
E||-5----------5----------------||


G||---------------------------|    
D||-5--5--5----5--5--7--7--10-| 
A||----------5----------------| 
E||---------------------------| 
                                        
G||------------------------|    
D||----8--8-7--8--8--8--7--|    
A||------------------------| 
E||------------------------|    
                                                        
G||-------------------8-||      (short pause)
D||---------------------||      
A||---5--5--5----5--5---||      
E||-5----------5--------||

////////////  SYNTHS KICK IN

G||------------10--8--6--------------|-----------8h10--8--6-8--------------|
D||----------8-----------------------|-----8--11---------------------------|
A||-9---9---9------------6----6--6-6-|-8-9--------------------6---6--6-8/9-|
E||--------9-----------------6-6-----|-------------------------------------|


G||------------10--8--6--------------|-----------8h10--8--6-8----7--||
D||----------8-----------------------|-----8--11--------------------||
A||-9---9---9------------6----6--6-6-|-8-9--------------------6-----||
E||--------9-----------------6-6-----|------------------------------||

  -Nothing ever changes…  
G||------------10--8--6--------------|-----------8h10--8--6-8---|
D||----------8-----------------------|-----8--11----------------|
A||-9---9---9------------6----6--6-6-|-8-9--------------------6-|
E||--------9-----------------6-6-----|--------------------------|

            -Looks the same to … 
G||--7----------------6--------------||
D||----------------------------------||
A||----------------------------------||
E||----------------------------------||


G||------------10--8--6--------------|-----------8h10--8--6-8---|
D||----------8-----------------------|-----8--11----------------|
A||-9---9---9------------6----6--6-6-|-8-9--------------------6-|
E||--------9-----------------6-6-----|--------------------------|
 
G||--7----------------6--------------||   Repeat this until the end. 
D||----------------------------------||
A||----------------------------------||
E||----------------------------------||   

My best interpretation of the song. enjoy. 
            
Tabs too difficult? Try these video lessons and learn fast.


comments powered by Disqus
↑ Back to top | Tablatures and chords are parodies/interpretations of the original songs. You may use it for private study, scholarship, research or language learning purposes only