>
 >
Two Wuv

Two Wuv Guitar Tabs

Tally Hall - Two Wuv chords, tabs, tablatures, lyrics

Guitar lessons | Add/correct | Request | Top 50 tabs Artists:  A B C D E F G H I J K L M N O P Q R S T U V W X Y Z 0-9

Two Wuv Guitar Tabs – Tally Hall

CD, Sheet music, Poster

Do you like Two Wuv? Share with your friends now
Bass TabsChordsChords v2TabsUkulele
Tally Hall: Two Wuv
Marvin's Marvelous Mechanical Museum

Standard Tuning
x = Palm Mute

INTRO:

e|-------------------------------------|
B|-------------------------------------|
G|-------------------------------------|
D|-------------------------------------|
A|---0-0-3-4-5-5---------1-2-3-3-2-1---|
E|---------------4-3-3-3---------------|  x 2

VERSE 1:

(in actuality the bass line)
e|-------------------------------------|
B|-------------------------------------|
G|-------------------------------------|
D|-------------------------------------|
A|---0-0-0-0-5-5-5-5---------3-3-3-3---|
E|-------------------3-3-3-3-----------| throughout song

at "right now it's solely mine"
e|-------------------------------------|
B|-------------------------------------|
G|-------------------------------------|
D|-------------------------------------|
A|---0-0-3-4-5-5---------1-2-3-3-2-1---|
E|---------------4-3-3-3---------------| 

PRE-CHORUS:

e|----------------------------------------|
B|----------------------------------------|
G|------------7-7-7-7-----------5-5-5-5---|
D|---7-7-7-7--7-7-7-7--5-5-5-5--5-5-5-5---|
A|---7-7-7-7--5-5-5-5--5-5-5-5--3-3-3-3---|
E|---5-5-5-5-----------3-3-3-3------------| x4
     x x x x  x x x x  x x x x  x x x x

CHORUS:
    Mary...Ashely..hope..-stand
e|----------------------------------------|
B|----------------------------------------|
G|----------7-7-7---------5-5-5-----------|
D|---7-7-7--7-7-7--5-5-5--5-5-5-----------|
A|---7-7-7--5-5-5--5-5-5--3-3-3-----------|
E|---5-5-5---------3-3-3------------------|
    love...lot....wanna..man
e|----------------------------------------|
B|----------------------------------------|
G|----------7-7-7---------5-5-5-----------|
D|---7-7-7--7-7-7--5-5-5--5-5-5-----------|
A|---7-7-7--5-5-5--5-5-5--3-3-3-----------|
E|---5-5-5---------3-3-3------------------|
   think...        totally..cool
e|-----------------------------------------|
B|-----------------------------------------|
G|------------7-------------5-5-5----------|
D|-slight--7--7------5-5-5--5-5-5----------|
A|-pause---7--5------5-5-5--3-3-3----------|
E|---------5---------3-3-3-----------------|
    hung...apart..enroll..school
e|----------------------------------------|
B|----------------------------------------|
G|----------7-7-7---------5-5-5-----------|
D|---7-7-7--7-7-7--5-5-5--5-5-5-----------|
A|---7-7-7--5-5-5--5-5-5--3-3-3-----------|
E|---5-5-5---------3-3-3------------------|

VERSE 2:

Mary-kate!
e|--------------------|
B|--------------------|
G|------------7-------|
D|---------7--7-------|
A|-pause---7--5-------|
E|---------5----------|

at "It's sadness.."
e|-------------------------------------|
B|-------------------------------------|
G|-------------------------------------|
D|-------------------------------------|
A|---0-0-3-4-5-5---------1-2-3-3-2-1---|
E|---------------4-3-3-3---------------|  x 2

e|-------------------------------------|
B|-------------------------------------|
G|-------5-6-7-7--------3-4-5-5-4-3----|
D|---7-7---------6-5-5-5---------------|
A|-------------------------------------|
E|-------------------------------------|  x 2


REPEAT CHORUS

INTERLUDE:
just bass at first
Guitar 1:
e|----------------------------------------|
B|----------------------------------------|
G|----------7-7-7---------5-5-5-----------|
D|---7-7-7--7-7-7--5-5-5--5-5-5-----------|
A|---7-7-7--5-5-5--5-5-5--3-3-3-----------|
E|---5-5-5---------3-3-3------------------| x2

Guitar 2:
e|--------------------------------------|
B|--------------------------------------|
G|---9-9-9-10-10-10-7--7-7-9-9-9-9------|
D|--------------------------------------|
A|--------------------------------------|
E|--------------------------------------| x 2

REPEAT CHORUS:
..your school
e|------------------------------------------|
B|------------------------------------------|
G|-----5-5-5-7-7-8-8-9-9-10-10-11-11-12-12--|
D|-----5-5-5--------------------------------|
A|-----3-3-3-5-5-6-6-7-7--8--8--9--9-10-10--|
E|------------------------------------------|

SHORT INTERLUDE:
e|-----------|
B|-----------|
G|-----5-----|
D|-----------|
A|-----3-----|
E|-----------| repeat


CHORUS until fade out



 





Comments


Popular Tally Hall tabs & chords
Hymn For A Scarecrow Chords
The Mind Electric Chords
Two Wuv Chords
Greener Tabs
Greener Ukulele
Hymn For A Scarecrow Ukulele
Spring And A Storm Ukulele
Stationary Love Ukulele
The Trap Ukulele
You Ukulele


Song lyrics



↑ Back to top | Tablatures and chords are parodies/interpretations of the original songs. You may use it for private study, scholarship, research or language learning purposes only
© 2014 AZChords.com Contact us | Privacy policy | DMCA | Add/correct tabs | Request tabs | Top 50 tabs