>
 >
Turn The Lights Off

Turn The Lights Off Guitar Tabs

Tally Hall - Turn The Lights Off chords, tabs, tablatures, lyrics

Guitar lessons | Add/correct | Request | Top 50 tabs Artists:  A B C D E F G H I J K L M N O P Q R S T U V W X Y Z 0-9

Turn The Lights Off Guitar Tabs – Tally Hall

CD, Sheet music, Poster

Do you like Turn The Lights Off? Share with your friends now
Tabs
-----------------------------------------------------------------------------
-----------------------------------------------------------------------------

Tuning:Standard

Well I love Tally Hall's new album and decided to tab out my favorite song from it.
I think I'll do Fate of the Stars too if anyone leaves a comment and wants me to do so. 
Anyway, this is an easy enough song that stars in F# major and then turns to G major. 


INTRO
F#5

VERSE

F#5
Don't go in there

You'll become one

Freaky creatures

B5
Monster party

F#5
Eyes of yellow

Scales and feathers

Tails in tethers

C#5      B5     F#5
TURN THE LIGHTS OFF



F#5	
Bend the nightmare

You control it

Artful dodger

B5
Easy does it

F#5
Shut the closet

Get under the covers

Snakes and lovers

C#5      B5     F#5
TURN THE LIGHTS OFF


CHORUS

B5        C#5                    RIFF 1
Everybody likes to get taken for turns

RIFF 1
Guitar 1                             Guitar 2
e|----------------------------------|---------------------------------------|
B|----------------------------------|----------12-13-14------------12-13-14-|
G|----------------------------------|--11--11------------11--11-11----------|
D|----------------------------------|---------------------------------------|
A|----------2-3-4-------------2-3-4-|---------------------------------------|
E|--2---2------------2--2-2---------|---------------------------------------|

D#5                   D5                C#5
To see how bright the fire inside of us burns

B5            C#5                 RIFF 1
And everybody wants to get evil tonight

D#5                 D5                   RIFF 2
But all good devils masquerade under the light

RIFF 2

Guitar 1
e|------------4-------------------------------------------------------------|
B|---------------7---6---4--------------------------------------------------|
G|--------6------------------6--4--3----------------------------------------|
D|-----6------------------------------4-------------------------------------|
A|--4-----------------------------------------------------------------------|
E|--------------------------------------------------------------------------|

Guitar 2
e|--------------16----------------------------------------------------------|
B|------------------19---18--16---------------------------------------------|
G|----------18-------------------18--16--15---------------------------------|
D|------18----------------------------------16------------------------------|
A|--16----------------------------------------------------------------------|
E|--------------------------------------------------------------------------|


VERSE

F#5
Here's the pinky

There's the kinky

Everybody

B5
complicate it

F#5
Man & Woman

Baby child

Calm & Wild

C#5      B5     F#5
TURN THE LIGHTS OFF


F#5
Don't remember            Durning this part, guitar 2 plays
		          F#, B, and C# instead of power chords
What we look like
			
Younger holding	

B5			
one another

F#5				
Paper colors
				
dangle streaming
			
Tangle screaming

C#5      B5     F#5			
TURN THE LIGHTS OFF


CHORUS

B5        C#5                    RIFF 1
Everybody likes to get taken for turns

RIFF 1
Guitar 1                             Guitar 2
e|----------------------------------|---------------------------------------|
B|----------------------------------|----------12-13-14------------12-13-14-|
G|----------------------------------|--11--11------------11--11-11----------|
D|----------------------------------|---------------------------------------|
A|----------2-3-4-------------2-3-4-|---------------------------------------|
E|--2---2------------2--2-2---------|---------------------------------------|

D#5                   D5                C#5
To see how bright the fire inside of us burns

B5            C#5                 RIFF 1
And everybody wants to get evil tonight

D#5                 D5                   RIFF 2
But all good devils masquerade under the light

RIFF 2

Guitar 1
e|------------4-------------------------------------------------------------|
B|---------------7---6---4--------------------------------------------------|
G|--------6------------------6--4--3----------------------------------------|
D|-----6------------------------------4-------------------------------------|
A|--4-----------------------------------------------------------------------|
E|--------------------------------------------------------------------------|

Guitar 2
e|--------------16----------------------------------------------------------|
B|------------------19---18--16---------------------------------------------|
G|----------18-------------------18--16--15---------------------------------|
D|------18----------------------------------16------------------------------|
A|--16----------------------------------------------------------------------|
E|--------------------------------------------------------------------------|


INTERLUDE

Guitar 1
F#5 B5 F#5 C#5 B5 (same as verse)

Guitar 2

e|--------------------------------------------------------------------------|
B|----------------11----------------11---------------11---------------------|
G|-------11--13-------------11--13-----------11--13--------10--8---10--8----|
D|--11------------------11---------------11---------------------------------|
A|--------------------------------------------------------------------------|
E|--------------------------------------------------------------------------|

e|--------------------------------------------------------------------------|
B|---------------11----------------11---------------11----------------------|
G|-------11--13-------------11--13-----------11--13--------13--11--13--11---|
D|--11--------------11-11-11--------------11--------------------------------|
A|--------------------------------------------------------------------------|
E|--------------------------------------------------------------------------|


VERSE

F#5
Can't they take it?             You can play the chords if you want but 
                                there is no guitar in this verse.
Should be stronger

Books abandoned

B5
Breathe the water

F#5
Mind distracted	
					
Sons & Daughters
					
Out for slaughter

C#5	 B5	F#5			
TURN THE LIGHTS OFF



BRIDGE (only a little bit of guitar)


Sparkles and shines on the water
	                  RIFF 3
Seeps through the cumulus brume	
RIFF 3
e|---------------|
B|---------------|
G|---------------|
D|---------------|
A|---------------|
E|--2---4--5-----|	

Tingles and tears while we're gazing
Vanishes soon after bedtime for good	


VERSE

G5
Don't you like it?
			
I know I do
				
How about you?

C5			
What do we know?

G5				
Tiny patterns
				
Hypnotizing
				
Terrorizing

D5	 C5	G5		
TURN THE LIGHTS OFF


CHORUS

C5        D5                    RIFF 1
Everybody likes to get taken for turns

RIFF 1
Guitar 1                             Guitar 2
e|----------------------------------|---------------------------------------|
B|----------------------------------|----------13-14-15------------13-14-15-|
G|----------------------------------|--12--12------------12--12-12----------|
D|----------------------------------|---------------------------------------|
A|----------3-4-5-------------3-4-5-|---------------------------------------|
E|--3---3------------3--3-3---------|---------------------------------------|

E5                    D#5                D5
To see how bright the fire inside of us burns

C5            D5                 RIFF 1
And everybody wants to get evil tonight

E5                  D#5                  D5         
But all good devils masquerade under the light    RIFF 2

RIFF 2

Guitar 1
e|------------5-------------------------------------------------------------|
B|---------------8---7---5--------------------------------------------------|
G|--------7------------------7--5--4----------------------------------------|
D|-----7------------------------------5-------------------------------------|
A|--5-----------------------------------------------------------------------|
E|--------------------------------------------------------------------------|

Guitar 2
e|--------------17----------------------------------------------------------|
B|------------------20---19--17---------------------------------------------|
G|----------19-------------------19--17--16---------------------------------|
D|------19----------------------------------15------------------------------|
A|--17----------------------------------------------------------------------|
E|--------------------------------------------------------------------------|


VERSE/END

G5
Chroma diamonds

Twinkle brightly

Dance in darkness

C5
Blow the nights off

G5
Sleepy child

Spark desire

Walk the fire

D5  C5  G5


************************************

| /   slide up
| \   slide down
| h   hammer-on
| p   pull-off
| ~   vibrato
| +   harmonic
| x   Mute note
| b   Bend
| pb  Pre-bend
| br  Bend release
| pbr Pre-bend release
| brb Bend release bend

************************************





Comments


Popular Tally Hall tabs & chords
Welcome To Tally Hall Bass Tabs
Greener Chords
Never Meant To Know Chords
Spring And A Storm Chords
The Bidding Chords
The Trap 1 Chords
A Lady Tabs
Be Born Tabs
Sacred Beast Ukulele
The Mind Electric Ukulele


Song lyrics



↑ Back to top | Tablatures and chords are parodies/interpretations of the original songs. You may use it for private study, scholarship, research or language learning purposes only
© 2014 AZChords.com Contact us | Privacy policy | DMCA | Add/correct tabs | Request tabs | Top 50 tabs