>
 >
Greener

Greener Guitar Tabs

Tally Hall - Greener chords, tabs, tablatures, lyrics

Guitar lessons | Add/correct | Request | Top 50 tabs Artists:  A B C D E F G H I J K L M N O P Q R S T U V W X Y Z 0-9

Greener Guitar Tabs – Tally Hall

CD, Sheet music, Poster

Do you like Greener? Share with your friends now
ChordsTabsUkulele
Track: #2
(Cantor)
=DD


So I'm not exactly good with chord names and like other technical crap. 
like sharps, flats, majors etc. 
So I might have some chords labeled wrong, but whatever, I tried. XD
(I got a little help from looking at the only other greener tab that's made by [ozmacity]. props!)



-Intro
e|---------12---12----12----------------------------------------------------|
B|-----------12----12----12---etc.----------------------------------------------|
G|--------------------------------------------------------------------------|
D|--------------------------------------------------------------------------|
A|--------------------------------------------------------------------------|
E|--------------------------------------------------------------------------|

e|--------------------------------------------------------------------------|
B|--------------------------------------------------------------------------|
G|----9--8------------------------------------------------------------------|
D|----9--9------------------------------------------------------------------|
A|----7--7------------------------------------------------------------------|
E|--------------------------------------------------------------------------|
Just listen for the strumming pattern. It's not too hard.


Verse 1:
   [E][E/Eb][C#m] [B]  [A]  [Am] [E]
e|--x----x----x----x----x----x----0-----------------------------------------|
B|--x----x----5----x----x----x----0-----------------------------------------|
G|--9----9----6----9----6----5----1-----------------------------------------|
D|--9----9----6----10---7----7----2-----------------------------------------|
A|--7----6----4----10---7----7----2-----------------------------------------|
E|--x----x----x----8----5----5----0-----------------------------------------|
  Here's that part again...       feet.
   
                  [C]
e|--x----x----x----x----x----x----x----x----x----x----x---------------------|
B|--x----x----5----x----x----x----5----x----5----x----x---------------------|
G|--9----9----6----9----6----8----6----9----6----9----6---------------------|
D|--9----9----6----10---7----9----6----9----6----9----7---------------------|
A|--7----6----4----10---7----9----4----6----4----6----7---------------------|
E|--x----x----x----8----5----7----x----x----x----x----5---------------------|
  Seconds tick like boulders.......                  

Pre-Verse:

e|--------------------------------------------------------------------------|
B|--------------------------------------------------------------------------|
G|----9--8------------------------------------------------------------------|
D|----9--9------------------------------------------------------------------|
A|----7--7------------------------------------------------------------------|
E|--------------------------------------------------------------------------|

Verse 2:

e|--x----x----x----x----x-----------x------------------x--x--x--------------|
B|--x----x----5----x----x-----------x------------------x--x--x--------------|
G|--9----9----6----9----6-----------9------------------9--x--x--------------|
D|--9----9----6----10---7-----------10-----------------9--5--7--------------|
A|--7----6----4----10---7-----------10-----------------7--5--7--------------|
E|--x----x----x----8----5-----------8------------------x--3--5--------------|
  Time for time together...In your.....house or outside.

e|--x----x----x----x----x----x----x------x-------------x----x----x----------|
B|--x----x----5----x----x----x----5------x-------------5----x----x----------|
G|--9----9----6----9----6----8----6------9-------------6----9----6----------|
D|--9----9----6----10---7----9----6------9-(2x)--------6----9----7----------|
A|--7----6----4----10---7----9----4------6-------------4----6----7----------|
E|--x----x----x----8----5----7----x------x-------------x----x----5----------|
  How different I felt...   ...for me.        Yeah but now...leave.


Chorus:

e|-------------------x------------------------------------------------------|
B|-------------------x------------------------------------------------------|
G|-------------------8------------------------------------------------------|
D|-------------------9------------------------------------------------------|
A|-------------------9------------------------------------------------------|
E|-------------------7------------------------------------------------------|
  Wherever you go...

e|------------------------x---x---x---x---x---x---x---x---------------------|
B|------------------------x---x---5---x---5---x---x---x---------------------|
G|------------------------9---8---6---6---6---6---8---9---------------------|
D|------------------------9---9---6---7---6---7---9---9---------------------|
A|------------------------7---9---4---7---4---7---9---7---------------------|
E|------------------------x---7---x---5---x---5---7---x---------------------|
  Is breaking me slowly...                   ...sound...
 
                                          [Ab]
e|-----x---x-----x-----x-------------------4----x----x----------------------|
B|-----x---x-----5-----x-------------------4----x----x----------------------|
G|-----8---9-----6-----6-------------------5----6----5----------------------|
D|-----9---10----6-----7-------------------6----7----7----------------------|
A|-----9---10----4-----7-------------------6----7----7----------------------|
E|-----7---8-----x-----5-------------------4----5----5----------------------|
  You fit.just.right, right next to me...    But there's always a reason...

e|--0---0-------------------------------------------------------------------|
B|--0---1-------------------------------------------------------------------|
G|--1---2-------------------------------------------------------------------|
D|--2---2-------------------------------------------------------------------|
A|--2---0-------------------------------------------------------------------|
E|--0---0-------------------------------------------------------------------|
 
Pre-Verse:

e|--------------------------------------------------------------------------|
B|--------------------------------------------------------------------------|
G|----9--8------------------------------------------------------------------|
D|----9--9------------------------------------------------------------------|
A|----7--7------------------------------------------------------------------|
E|--------------------------------------------------------------------------|

Verse 3:

e|--x----x----x----x----x-----------x------------------x--x--x--------------|
B|--x----x----5----x----x-----------x------------------x--x--x--------------|
G|--9----9----6----9----6-----------9------------------9--x--x--------------|
D|--9----9----6----10---7-----------10-----------------9--5--7--------------|
A|--7----6----4----10---7-----------10-----------------7--5--7--------------|
E|--x----x----x----8----5-----------8------------------x--3--5--------------|
  Telephones make you seem...

e|--x----x----x----x----x----x----x------x-----------x--------x--------x----|
B|--x----x----5----x----x----x----5------x-----------5--------x--------x----|
G|--9----9----6----9----6----8----6------9-----------6--------9--------6----|
D|--9----9----6----10---7----9----6------9-----------6--------9--------7----|
A|--7----6----4----10---7----9----4------6-----------4--------6--------7----|
E|--x----x----x----8----5----7----x------x-----------x--------x--------5----|
  Leave a message at your tone...       and I find a little...shade...envy.. 


(Chorus x1)


Outro:

e|--x----x----x----x----x---------------------------------------------------|
B|--x----x----5----x----x---------------------------------------------------|
G|--6----8----6----8----9---------------------------------------------------|
D|--7----9----6----9----9---------------------------------------------------|
A|--7----9----4----9----7---------------------------------------------------|
E|--5----7----x----7----x---------------------------------------------------|
     Wherever you are is...

e|-----x---------x---------x------------------------------------------------|
B|-----x---------5---------x------------------------------------------------|
G|-----8---------6---------6--------------------------------------------------|
D|-----9---------6---------7--------------------------------------------------|
A|-----9---------4---------7--------------------------------------------------|
E|-----7---------x---------5------------------------------------------------|
  You fit just right, right next to me...

end!! <3





Comments


Popular Tally Hall tabs & chords
Banana Man Chords
Be Born 1 Chords
I Know Its Just The Same Chords
Ruler Of Everything Chords
Spring And A Storm Chords
Fate Of The Stars Tabs
Maybe In The Night Ukulele
Misery Fell Ukulele
Ruler Of Everything Ukulele
You And Me Ukulele


Song lyrics



↑ Back to top | Tablatures and chords are parodies/interpretations of the original songs. You may use it for private study, scholarship, research or language learning purposes only
© 2014 AZChords.com Contact us | Privacy policy | DMCA | Add/correct tabs | Request tabs | Top 50 tabs