» » »

Tallman, Iodine Tabs (ver.2)

Artists:  A B C D E F G H I J K L M N O P Q R S T U V W X Y Z # 

Iodine Tabs (ver.2)

Tallman Tabs
Rating:
1/5 (1 vote)
Iodine lessons Tabs too difficult? Try these video lessons and learn fast
                
Drop D Tuning (DADGBe)

*the song starts with a tap on a cymbal.
You will hear the guitar come in after 6 seconds.

This is the riff(s) you will hear
Jay sings over these.
e------------|---------------|
B------------|---------------|
G-5--5-5-5-5-|-5/7-7\9-9/5-5-|
D-3--3-3-3-0-|---------------|
A-3--3-3-3-0-|---------------|
D-3--3-3-3-0-|---------------|
^strummed     ^picked

e------------|-----------------|
B------------|-----------------|
G-5--5-5-5-5-|-5/7-7\9-9/12-12-|
D-3--3-3-3-0-|-----------------|
A-3--3-3-3-0-|-----------------|
D-3--3-3-3-0-|-----------------|
^strummed     ^picked

e------------|---------------|
B------------|---------------|
G-5--5-5-5-5-|-5/7-7\5-5/9-9-|
D-3--3-3-3-0-|---------------|
A-3--3-3-3-0-|---------------|
D-3--3-3-3-0-|---------------|
^strummed     ^picked

e------------|-----------------|
B------------|-----------------|
G-5--5-5-5-5-|-5/7-7\9-9/12-12-|
D-3--3-3-3-0-|-----------------|
A-3--3-3-3-0-|-----------------|
D-3--3-3-3-0-|-----------------|
^strummed     ^picked

1:00 - 1:25
e-------------------------------------------|
B-------------------------------------------|
G-9-9-9-10-9-9-12-12-12-12/9-9-9-9-10-9-7-9-|
This riff is played inbetween/while jay sings
"The stone falls from your hand..."                     

This is the first 'heavy' part as best I can figure.
D-7-7-7-7-9-7-7-5-7-7-7-7-9-7-7-7-3-0-|
A-7-7-7-7-9-7-7-5-7-7-7-7-9-7-7-7-3-0-|
D-7-7-7-7-9-7-7-5-7-7-7-7-9-7-7-7-3-0-|

D-2--2-4-2-0-5*--7-10-|
A-2--2-4-2-0-5*--7-10-|
D-2--2-4-2-0-5*--7-10-|
                 ^ ^ strum both 8 times.

This riff starts at 3:07 and is the end of the heavy part.
D-10-9-12-14-12-10--12-10-14-15--10-10-10-12-9-7*-|
A-10-9-12-14-12-10--12-10-14-15--10-10-10-12-9-7*-|
D-10-9-12-14-12-10--12-10-14-15--10-10-10-12-9-7*-|
*= sustained note. You let the chord ring.

This is the chords played next.
They probably aren't perfect, but they're close.
e---------------------------------------|
B---------------------------------------|
G-5-5-5-5-|-5-5-5-5-5-5-5-7-7-7-7-7-7-7-|
D-5-5-5-5-|-3-3-3-3-3-3-3-5-5-5-5-5-5-5-|
A-3-3-3-3-|-3-3-3-3-3-3-3-5-5-5-5-5-5-5-|
D---------|-3-3-3-3-3-3-3-5-5-5-5-5-5-5-|

This is the chords strummed over Jay's beephorn.
Also might be wrong, but close.
G-9-9-9-9-7-7-7-7-12-9-9-9-9-|-5-5-5-5-7-7-7-7-|
D-7-7-7-7-5-5-5-5-10-7-7-7-7-|-3-3-3-3-5-5-5-5-|
A-7-7-7-7-5-5-5-5-10-7-7-7-7-|-3-3-3-3-5-5-5-5-|
D-7-7-7-7-5-5-5-5-10-7-7-7-7-|-3-3-3-3-5-5-5-5-|

I think this is the last riff in the song:
G-9-9-9-9-8-8-8-8-| |-0-|> strum this, but slowly
D-7-7-7-7-6-6-6-6-| |-0-|> so you can hear each string
A-7-7-7-7-6-6-6-6-| |-0-|> as you agitate it
D-7-7-7-7-6-6-6-6-| |-0-|> it's muted, and it's a downstroke

This song was really difficult to figure out, but it's a great song and everyone
is going to want to know how it's played. This is pretty darn close. If you play
what's in this tab and it doesn't sound right, check your tuning. Any questions,
            

comments powered by Disqus
↑ Back to top | Tallman Tabs for Iodine. Lyrics for acoustic guitar and electric guitar. Tablatures and chords are parodies/interpretations of the original songs. You may use it for private study, scholarship, research or language learning purposes only